В начало / Каталог / Русский, D / ДДТ / Неизвестный альбом / Это все (вступление) (2) /


Текст песни

Количество правок текста: 1 Редактировать текст


!		Буду струны рисовать по-нормальному.. вверху шестая.

		    A              A              E              E
		[6|--0-----------|--0-----------|--0-----------|--0-----------|
		5|--0-----------|--0-----------|--2-----------|--2-----------|
		4|--2-----------|--2-----------|--2-----------|--2-----------|
		3|--2--------2--|--2--------2--|--1-----------|--1-----------|
		2|--2--3--2-----|--2--3--2-----|--0--------3--|--0--3--2--3--|
		1|--0-----------|--0-----------|--0--2--0-----|--0-----------|



		   Hm             Hm             Hm              E
		6|--2-----------|--2-----------|--2-----------|--0--
		5|--2-----------|--2-----------|--2-----------|--2--
		4|--4--------2--|--4--------2--|--4-----------|--2--
		3|--4-----2-----|--4-----2-----|--4-----4--2--|--1--
		2|--3--3--------|--3--3--------|--3--3--------|--0--
		1|--2-----------|--2-----------|--2-----------|--0--]



Аккорды, используемые в подборе:
Схема аккорда A Схема аккорда E Схема аккорда Hm


У этой песни отсутствуют табулатуры. Вы можете добавить табулатуры сами


Запросов к БД: 6
Генерация без шаблонов: 0.0029299259185791