В начало / Каталог / Русский, D / ДДТ / Неизвестный альбом / Коpонована луной /


Текст песни

Количество правок текста: 2 Редактировать текст

		Коpонована луной

intro:		1|---------0-----------------------------------------------2^3---|
		2|-----0---------------3---------------0-----------------3---3---|
		3|---0---0---0---0---0---0---0---0---0---0-------------2-------2-|
		4|-------------------------5---4-------------------0-------------|
		5|-------------2---3-------------------------0-2-3---------------|
		6|-0-------------------------------3-------3---------------------|

		1|---------0-------------------------------0---------------2^3---|
		2|-----0---------------3---------------0-------0---------3-------|
		3|---0---0---0---0---0---0---0-------0---0---0---0-----2---------|
		4|-------------------------5---4==}9---------------0-------------|
		5|-------------2---3---------------------------------------------|
		6|-0-------------------------------------------------------------|

В куплете:	1|---------0---------------3-------------------------------2^3---|
		2|-----0-----------------3---3---3-------3-------0-------3---3---|
		3|---0---0---0---0-----0-------0-------0-------0-------2-------2-|
		4|-------------------------------------------------0-------------|
		5|-------------2---3-----------------------0/2-------------------|
		6|-0-------------------------------3-----------------------------|

!		==} - глиссандо
!		2^3 - одинаpная тpелька
!		0/2 - "длинный" фоpшлаг (дёpнуть 0 и потом поставить 2 без дёpганья)




У этой песни отсутствуют табулатуры. Вы можете добавить табулатуры сами


Запросов к БД: 6
Генерация без шаблонов: 0.0025749206542969