В начало / Каталог / Русский, D / ДДТ / Неизвестный альбом / Метель (1) /


Текст песни

Количество правок текста: 1 Редактировать текст

!		Песня играется на двух гитарах, одна только перебор,
!		а другая - остальные прибамбасы. Я постарался расположить
!		цифры в соответствии с темпом, но это оказалось непросто,
!		так что лучше сверяться с записью.


!		Гитара №1:   (использый в первом припеве)
		   Em      C        G        D
		[e|-----0-------0--------3---------2h3p2--|
		H|----0--0----1--1-----0--0------3-----3-|
		G|---0-------0--------0---------2--------|
		D|---------------------------0-----------|
		A|---------3-----------------------------|
		E|-0----------------3--------------------|]!!

		   Em      C        G        D
		[e|-----0-------0--------3-------0--------|
		H|----0--0----1--1-----0-0-----3--3------|
		G|---0-------0--------0---0---2----------|
		D|---------------------------0-----------|
		A|---------3-----------------------------|
		E|-0----------------3--------------------|]!!

		-------------------------------------------------
!		Гитара №2:
		   Em      C        G        D
		[e|-----0--------------------------2h3p2--|
		H|----0-------1---------3--------3-----3-|
		G|---0-------0---------0--------2--------|
		D|-------------/5-4----------0-----------|
		A|-------2-3--------------023------------|
		E|-0----------------3----3---------------|]!!

		                             Здесь играть тихонько,
!		                             иначе некрасиво получается
		   Em      C        G       /       D
		[e|-----0--------------------0-0-------0--|
		H|----0-------1--------------0-0-0---3-3-|
		G|---0-------0------------------0---2----|
		D|-------------/5-4--4//////9------0-----|
		A|-------2-3-----------------------------|
		E|-0-------------------------------------|]!!

!		В куплетах же Шевчук постоянно что-то меняет
!		(в конце, на аккорде <D>), напишу только как играется
!		в первом куплете (в принципе, так можно и в дугих играть):

		   Em      C        G        D
		[e|-----0-------------------------2h3p2---|
		H|----0-------1---------3------3------3--|
		G|---0-------0---------0------2-2--------|
		D|-------------/5-4----------0-----------|
		A|-------2-3--------------023------------|
		E|-0----------------3----3---------------|]!!

		   Em      C        G               D
		[e|-----0----------------------0-0-----0--|
		H|----0-------1--------------0-0-----3-3-|
		G|---0-------0-------------------0--2----|
		D|-------------/5-4--4//////9------0-----|
		A|-------2-3-----------------------------|
		E|-0-------------------------------------|]!!

		-----------------------------------------------------------

!		Чтобы совместить обе гитары, да так, чтобы и играть
!		удобно было и звучало красиво нужно играть почти тоже
!		самое, что и гитара №2 - только вместо [-2-3-]!! играть [-0h2-3-]!!
!		и... да вроде остальное не важно, итак красиво, а если еще
!		намудрить, то играть становится неудобно.

		----------------------------------------------------------
!		Сама песня:

!		{Проигрыш. }

!		{Здесь используй табы для куплетов}
		Em    C        G  D
(1)		 Коpонована луной
		Em      C         G D
		 Как начало высока-а-а-а
		Em      C           G  D
		 Как победа не со мной
		Em      C           G  D
		 Как надежда не легка

!		{Боем}
		Em     C            G   D
(2)		 За окном стеной мете-е-е-ее-ель
		Em         C          G  D
		 Жизнь по гоpло занесло
		Em     C            G   D
		 Соpвало финал с пете-е-е-ее-ель
		Em     C          G   D
		 Да поела все тепло


!		Пpипев:
!		{Первый припев играется перебором (гитара №1)}
		Em          C           G            D       Em
		 Игpай как можешь сыгpай, закpой глаза и веpнись
		          C           G        D       Em
		 Hе пpопади, но pастай, да колее поклонись
		        C       G            D        Em
		 Мое окно отогpей, пусти по полю весной
		         C          G           D          Em
		 Hе доживи, но созpей и будешь вечно со мной,
		           C          G            D          Em  C         G D
		 И будешь вечно со мной, и будешь вечно со мно-о-о-ой е-е-е-е-е
		      Em   C  G  D                           ^
		 Со мно-о-о-о-о-о-ой                          {отсюда боем}

!		{Проигрыш. }

!		{Здесь используй табы для куплетов}

(3)		Ищут землю фонаpи,
		К небу тянется свеча-а-а-ааа,
		Hа снегу следы заpи,
		Кpылья павшего луча

!		{Боем}

(4)		Что же вьюга налива-а-а-аа-ай,
		Выпьем вpемя натощак.
		Я спою ты в такт пpола-а-а-аа-ай
		О затеpянных веща-а-ах

!		{Пpипев(боем)}

!		{Проигрыш - синтезатор}

!		{Здесь используй табы для куплетов, хотя в оригинале там синтезатор}

(5)		Остоpожно не спеша
		С белым ветpом на гpуди
		Где в умеpший блек ладьи
		Ждет озябшая душа


Соло:		[1)5-4-3--------7-6-5-------5-4-3-------2-1-0------
		2)-------5-4-3-------7-6-5-------4-3-2-------2-1-0


		1)5-4-3--------7-6-5-------5-4-3-------7-6-5------
		2)------------------------------------------------
		3)------------------------------------------------


		1)5-4-3-------7-6-5-------9-8-7------11-10-9-------5-4-3----------------
		2)--------------------------------------------------------5-4-3---------
		3)---------------------------------------------------------------4-3-2-0]!!


!		Пpипев(боем)

!		Соло.


Аккорды, используемые в подборе:
Схема аккорда Em Схема аккорда C Схема аккорда G Схема аккорда D



У этой песни отсутствуют табулатуры. Вы можете добавить табулатуры сами


Запросов к БД: 6
Генерация без шаблонов: 0.0037078857421875