В начало / Каталог / Русский, D / ДДТ / Неизвестный альбом / Метель (табы и пояснение игры) /


Текст песни

Количество правок текста: 1 Редактировать текст

!		Всутпление + куплет. Вариант для двух гитар.
!		Очень рекомендую (! ) перед тем как пробовать
!		играть послушать ещё раз оригинал.

!		ВСТУПЛЕНИЕ (+часть куплета):
!		ГИТАРА 1:
		[E||---------0-----|---------0-----|---------3------|-------0------|
		B||-------0----0--|-------1-1--1--|-----------0----|---------3----|
		G||-----0---------|-----0---------|-------0-----0--|-----------2--|
		D||---------------|---------------|-----0----------|--0-----------|
		A||---------------|--3------------|----------------|--------------|
		E||--0------------|---------------|--3-------------|--------------|

		E|---------0-----|---------0-----|---------3-------|---------0------|
		B|-------0----0--|-------1-1--1--|-----------0-----|------3-----3---|
		G|-----0---------|-----0---------|-------0-----0---|----2---------2-|
		D|---------------|---------------|-----0---------0-|--0-------------|
		A|---------------|--3------------|-----------------|----------------|
		E|--0------------|---------------|--3--------------|----------------|]!!

!		ГИТАРА 2:
		[E||-------0-----|-------------|---------------|---------0------|
		B||-------0-----|-------------|---------------|-------3---3----|
		G||-------------|-------------|---------------|-----2-------2--|
		D||-------------|--------2-0--|---------------|--0-------------|
		A||----------2--|--3----------|---------0-2-3-|----------------|
		E||--0----------|-------------|--3----3-------|----------------|

		E|-------0-----|-------------|-------------|---------0------|
		B|-------0-----|-------------|--------0----|------3-----3---|
		G|-------------|-------------|----------0--|----2---------2-|
		D|-------------|--------2-0--|---9---------|--0-------------|
		A|----------2--|--3----------|-------------|----------------|
		E|--0----------|-------------|-------------|----------------|]!!


!		КУПЛЕТ:

!		ГИТАРА 1 переходит на бой

!		ГИТАРА 2:
		[E|--0---------|-------0----|--------------|---------0------|
		B|--0----0----|-------1----|-------3-1-0--|-------3----3---|
		G|------------|------------|-----------0--|--2--2--------2-|
		D|------------|------------|--------------|--0-------------|
		A|------------|--3---------|--------------|----------------|
		E|--0---------|------------|--3-----------|----------------|

		E|--0---------|-------0----|--------------|-------0------||
		B|--0----0----|-------1----|-------3-1-0--|---------3----||
		G|------------|------------|-------0-0-0--|--2--------2--||
		D|------------|------------|--------------|--0-----------||
		A|------------|--3---------|--------------|--0-----------||
		E|--0---------|------------|--3-----------|--------------||]!!




У этой песни отсутствуют табулатуры. Вы можете добавить табулатуры сами


Запросов к БД: 6
Генерация без шаблонов: 0.0030200481414795