В начало / Каталог / Русский, D / ДДТ / Неизвестный альбом / Новое сердце /


Текст песни

Количество правок текста: 1 Редактировать текст

		Новое сердце

Вступление:	 } 2 раза

!		          (напористо)                        (замедляя)
		    Hm           G            Em           F#7
		1|------------------------------------------------------
		2|----2-3-2-3-0----0-1-0-1-0----0-1-0-1-0----3-3-3-2-0--
		3|----4-4-4-4-0----0-0-0-0-0----0-0-0-0-0----0-0-0-0-0--
		4|------------------------------------------------------
		5|--2---------------------------------------------------
		6|---------------3------------0------------0------------

Куплет:		<    D            F#           Hm           G>
		1|--------2------------2------------0-------------------
		2|------3---3--------2---2------2-3---3-2--------3-2-0--
		3|----2-------2----3-------3-------------------0--------
		4|--0----------------------------------------0----------
		5|----------------------------2-------------------------
		6|---------------2-------------------------3------------

		    D            F#           Hm           G
		1|--------2------------2--------------------------------
		2|------3---3--------2---2------2-3-2-3-0----0-2-0-2----
		3|----2-------2----3-------3-------------------------2--
		4|--0---------------------------------------------------
		5|----------------------------2-------------------------
		6|---------------2-------------------------3------------

		     D              F#
		Небо звездное, метель августа,
		   Hm               G
		На дороге машин канителица,
		     D              F#
		Возят засуху, а мне радостно -
		     Hm            G
		Знаю точно, погода изменится!

		Я смотрю наверх, там где мы живем,
		Так все тихо, сухо, да правильно.
		Я же из тех, кому нет победы днем,
		Я как степь дышу сном неправедным.

		Я по засухе, ведро полное
		Между фар лисой, живьем пламени.
		Я так мал, а вокруг все огромное,
		И плевать, что ни ружья да ни знамени!

		Небо звездное, метель августа,
		Оглянись - расцветает пророчество.
		Дело степь мое - одиночество,
		Смерти нет, но всегда - пожалуйста.

Припев:		<    D            F#           Hm           G>
		1|--------2------------2------------2-------------------
		2|------3---3--------2---2--------3---3----------3-2-0--
		3|----2-------2----3-------3----4-------4------0--------
		4|--0----------------------------------------0----------
		5|----------------------------2-------------------------
		6|---------------2-------------------------3------------

		    D            F#           G            E
		1|--------2------------2------------3------------0------
		2|------3---3--------2---2--------3---3--------0---0----
		3|----2-------2----3-------3----4-------4----1-------1--
		4|--0---------------------------------------------------
		5|------------------------------------------------------
		6|---------------2------------3------------0------------

		D     F#     Hm            G
		Новое сердце взорвется над нами
		D     F#    G          E
		Новая жизнь позовет за собой.
		И освященный седыми богами
		Я, как на праздник, пойду за тобой.

!		Мелодический эпизод:
		    Hm           G            Em           F#7
		1|------------------------------------------------------
		2|----2-3-2-3-0----0-1-0-1-0----0-1-0-1-0----0-1-0-1-0--
		3|------------------------------------------------------
		4|------------------------------------------------------
		5|--2---------------------------------------------------
		6|---------------3------------0------------3------------

!		                                  (замедляя)
		    Hm           G            Em           F#7
		1|------------------------------------------------------
		2|----2-3-2-3-0----0-1-0-1-0----0-1-0-1-0----3-3-3-2-0--
		3|------------------------------------------------------
		4|------------------------------------------------------
		5|--2---------------------------------------------------
		6|---------------3------------0------------0------------

Куплет:		Небо звездное, руки августа,
		На дороге машин метелица
		Что пожнем, когда пыль рассеется
		Степь красна, как чернила Фауста.

		Ночь светла, как круги от времени,
		Что забросил я в смерть уставшую.
		Все дороги растут из семени,
		Не дошедшего, да недоспавшего…

		Жду от нового века, белого,
		Продолжения понимания,
		Что мы часть всего безответного,
		Что мы ночь всего ожидания.

Припев:		Новое сердце взорвется над нами
		Новая жизнь позовет за собой.
		И освященный седыми богами
		Я, как на праздник, пойду за тобой.

		Новое сердце взорвется над вами
		Новая жизнь позовет за собой.
		И освященный седыми богами
		Я, как на праздник, пойду в этот бой.

!		Мелодический эпизод

-

!		Оригинальная тональность
!		Мелодический эпизод:
		Hm G Em F#7 } 2 раза
Куплет:
квадрат:	<D F# Hm G>
		Небо звездное, метель августа,
		На дороге машин канителица,
		Возят засуху, а мне радостно –
		Знаю точно, погода изменится!

		Я смотрю наверх, там где мы живем,
		Так все тихо, сухо, да правильно.
		Я же из тех, кому нет победы днем,
		Я как степь дышу сном неправедным.

		Я по засухе, ведро полное
		Между фар лисой, живьем пламени.
		Я так мал, а вокруг все огромное,
		И плевать, что ни ружья да ни знамени!

		Небо звездное, метель августа,
		Оглянись – расцветает пророчество.
		Дело степь мое – одиночество,
		Смерти нет, но всегда – пожалуйста.

Припев:		<D F# Hm G>
		D F# G E
		Новое сердце взорвется над нами
		Новая жизнь позовет за собой.
		И освященный седыми богами
		Я, как на праздник, пойду за тобой.

!		Мелодический эпизод:
		Hm G Em F#7

Куплет:
квадрат:	<D F# Hm G>
		Небо звездное, руки августа,
		На дороге машин метелица
		Что пожнем, когда пыль рассеется
		Степь красна, как чернила Фауста.

		Ночь светла, как круги от времени,
		Что забросил я в смерть уставшую.
		Все дороги растут из семени,
		Не дошедшего, да недоспавшего…

		Жду от нового века, белого,
		Продолжения понимания,
		Что мы часть всего безответного,
		Что мы ночь всего ожидания.

Припев:		<D F# Hm G>
		D F# G E
		Новое сердце взорвется над нами
		Новая жизнь позовет за собой.
		И освященный седыми богами
		Я, как на праздник, пойду за тобой.
		D F# Hm G
		D F# G E !!!…
		Новое сердце взорвется над вами
		Новая жизнь позовет за собой.
		И освященный седыми богами
		Я, как на праздник, пойду в этот бой.

!		Мелодический эпизод:
		Hm G Em F#7

-

Вступление:	(2 раза)
		1) -------------------------------------------------------
		2) ----2-3-2-3-0----0-2-0-2-0----0-2-0-2-0----3-3-3-2-0---
		3) ----0-0-0-0-0----0-0-0-0-0----0-0-0-0-0----0-0-0-0-0---
		4) -------------------------------------------------------
		5) -2-----------------------------------------------------
		6) --------------3------------0------------0--------------

!		Еще одно вступление как вариант:
		1|--------------------------------------------------------------------------|
		2|-----2-3-2-3-2-3-2------3-3-3-3-3-3-3-------0-2-0-2-0-2-0-------3-3-3-2-0-|
		3|-----4-4-4-4-4-4-4------4-7-4-7-4-7-4-------0-0-0-0-0-0-0-------0-0-0-0-0-|
		4|-----4-4-4-4-4-4-4------5-5-5-5-5-5-5-------2-2-2-2-2-2-2-------2-2-2-0-4-|
		5|-2------------------------------------------------------------------------|
		6|---------------------3--------------------0------------------0------------|

Куплет:		(Перебор на всю песню)
		     D           F#          Hm          G
		1) --------2-----------2-----------2-----------3----
		2) ------3---3-------2---2-------3---3-------3---3--
		3) ----2-------2---3-------3---4-------4---4-------4
		4) --0----------------------------------------------
		5) --------------------------2----------------------
		6) --------------2-----------------------3----------

!		*Куплеты играются перебром  <F#> и <G> играются с 4-ой струны.    *
!		*Припевы тоже перебором но в эти аккорды с 6-ой струны.       *
!		*Причём басом нужно подчеркивать начало каждой строки припева.*

		     D                F#
		Небо звездное, метель августа,
		   Hm               G
		На дороге машин канителица,
		      D             F#
		Возят засуху, а мне радостно –
		      Hm             G
		Знаю точно, погода изменится!

		Я смотрю наверх, там где мы живем,
		Так все тихо, сухо, да правильно.
		Я же из тех, кому нет победы днем,
		Я как степь дышу сном неправедным.

		Я по засухе, ведро полное
		Между фар лисой, живьем пламени.
		Я так мал, а вокруг все огромное,
		И плевать, что ни ружья да ни знамени!

		Небо звездное, метель августа,
		Оглянись – расцветает пророчество.
		Дело степь мое – одиночество,
		Смерти нет, но всегда – пожалуйста.

		D     F#         Hm        G
Припев:		Новое сердце взорвется над нами
		D     F#        G        E
		Новая жизнь позовет за собой.
		И освященный седыми богами
		Я, как на праздник, пойду за тобой.

!		Проигрыш аккорда <E>:

		    E

		1) -------0------------0-----------0---------------
		2) -----0---0--------0---0-------0---0-------------
		3) ---1-------1----1-------1---1-------1-----------
		4) ------------------------------------------------
		5) ------------------------------------------------
		6) -0------------0-----------0-----------0---------

!		Solo на проигрыш аккордов: <Hm G Em F#> - проигрыш (2 раза)

		[1|---9-10-9-10-7---7-9-7-9-5---7-9-7-9-7---7-9-7-9-5--

		-9-10-9-10-7---7-9-7-9-5---7-9-7-9-7---10-10-10-9-7]!!

!		Куплет:

		Небо звездное, руки августа,
		На дороге машин метелица
		Что пожнем, когда пыль рассеется
		Степь красна, как чернила Фауста.

		Ночь светла, как круги от времени,
		Что забросил я в смерть уставшую.
		Все дороги растут из семени,
		Не дошедшего, да недоспавшего…

		Жду от нового века, белого,
		Продолжения понимания,
		Что мы часть всего безответного,
		Что мы ночь всего ожидания.

!		Припев:

		Новое сердце взорвется над нами
		Новая жизнь позовет за собой.
		И освященный седыми богами
		Я, как на праздник, пойду за тобой.

		Новое сердце взорвется над вами
		Новая жизнь позовет за собой.
		И освященный седыми богами
		Я, как на праздник, пойду в этот бой.

		    E

		1) -------0------------0-----------0---------------
		2) -----0---0--------0---0-------0---0-------------
		3) ---1-------1----1-------1---1-------1-----------
		4) ------------------------------------------------
		5) ------------------------------------------------
		6) -0------------0-----------0-----------0---------

!		Solo на проигрыш аккордов: <Hm G Em F#> - проигрыш (2 раза)

		[1|---9-10-9-10-7---7-9-7-9-5---7-9-7-9-7---7-9-7-9-5--

		-9-10-9-10-7---7-9-7-9-5---7-9-7-9-7---10-10-10-9-7---]!!


Аккорды, используемые в подборе:
Схема аккорда Hm Схема аккорда G Схема аккорда Em Схема аккорда F#7
Схема аккорда D Схема аккорда F# Схема аккорда E


У этой песни отсутствуют табулатуры. Вы можете добавить табулатуры сами


Запросов к БД: 6
Генерация без шаблонов: 0.0027389526367188