В начало / Каталог / Русский, D / ДДТ / Неизвестный альбом / Вальс /


Текст песни

Количество правок текста: 1 Редактировать текст

		Вальс

Вступление:	1|--7--5-3--2-3-2-0--------------0------
		2|---------------------3-1-----1----4-0-
		3|---------------------------2----------

		1|--7--5-3--2-3-2-0--------------0------
		2|---------------------3-1-----1----4---
		3|---------------------------2----------

		1|--0--1-0----0--1-0----0--1-0----------
		2|----------4---------4----------4-1-0--
		3|--------------------------------------

		1|--7--5-3--2-3-2-0--------------0------
		2|---------------------3-1-----1----4---
		3|---------------------------2----------

		 Em            C         Am          H7
		Дай хоть на секунду испытать святую милость
		 Em           C              Am           H7
		Снег, вчера упавший, расспросить про небеса
		 C            C          Am           H7
		Что бы ни пропало, ни погибло, ни случилось
		 Em          C         Am       H7
		Слышать доносящиеся с неба голоса

		И догнать бредущую в беспамятстве дорогу
		И вернуть на место землю, как заведено
		Покажите чудо, чтобы видно было многим
		Как перевоплощается в кровь твое вино

Проигрыш:	<Em C Am H7>
		Em C Am H7
		C  C Am H7
		Em C Am H7

		Ветрами, морозами - хоть чем-нибудь поверьте
		Покажи им чудо, злую осень покажи
		Жизнь всегда любуется великолепной смертью
		Смерть всегда отчаянно запоминает жизнь

		Если бы хоть строчка этой ночью получилась
		День жужжал и жег бумагой белой на столе
		Все, что потерял я, отлюбил, что не свершилось
		Вырастет подстрочником зеленым на золе

!		Проигрыш

		Дай мне оправдать твою безжалостную милость
		Верными аккордами подыскать ключи
		В сад, где все начала, все концы, куда стремились
		Мы, когда нас резали и штопали врачи

		Вырваться за грань уютной проданной свободы
		Выбраться на волю сквозь витрины-миражи
		Лечь в траву сухую и увидеть свои роды
		Бабка-повитуха - смерть, хоть что-нибудь скажи

!		Проигрыш

-

Вступление:	1|-7--5----------------------------
		2|------8-7-5---------------5-4----
		3|-------------7-5-4-5--4-5------4-

		1|-7--5-------------------------
		2|------8-7-5---------------5-4-
		3|-------------7-5-4-5--4-5-----

		1|---------------------------------
		2|-5--7-5-4-5--7-5-4-5--7-5-4-5--7-
		3|---------------------------------

		1|-7--5-------------------------
		2|------8-7-5---------------5-4-
		3|-------------7-5-4-5--4-5-----

		EmAm    H7
		Дай хоть на секунду испытать святую милость
		Em    Am         H7
		Снег, вчера упавший, расспросить про небеса
		C     H7
		Что бы ни пропало, ни погибло, ни случилось
		Em    C      Am       H7
		Слышать доносящиеся с неба голоса
		C    H7
		И догнать бредущую в беспамятстве дорогу
		Em
		И вернуть на место землю, как заведено
		C H7
		Покажите чудо, чтобы видно было многим
		    Em     C       Am   H7
		Как перевоплощается в кровь твое вино

		Ветрами, морозами - хоть чем-нибудь поверьте
		Покажи им чудо, злую осень покажи
		Жизнь всегда любуется великолепной смертью
		Смерть всегда отчаянно запоминает жизнь
		Если бы хоть строчка этой ночью получилась
		День жужжал и жег бумагой белой на столе
		Все, что потерял я, отлюбил, что не свершилось
		Вырастет подстрочником зеленым на золе

		Дай мне оправдать твою безжалостную милость
		Верными аккордами подыскать ключи
		В сад, где все сначала, все концы, куда стремились
		Мы, когда нас резали и штопали врачи
		Вырваться за грань уютной проданной свободы
		Выбраться на волю сквозь витрины-миражи
		Лечь в траву сухую и увидеть свои роды
		Бабка-повитуха - смерть, хоть что-нибудь скажи

ПРИМЕЧАНИЕ:	Играть щипком!!!
		Один раз бас, два раза щипок,
		один раз бас, два раза щипок...


Аккорды, используемые в подборе:
Схема аккорда Em Схема аккорда C Схема аккорда Am Схема аккорда H7



У этой песни отсутствуют табулатуры. Вы можете добавить табулатуры сами


Запросов к БД: 6
Генерация без шаблонов: 0.002964973449707