В начало / Каталог / Русский, K / Кино / Неизвестный альбом / Когда твоя девушка больна (1) /


Текст песни

Количество правок текста: 1 Редактировать текст

!		Бой: VVV^V^

!		Вступление:
		   G         G
		[4|-5-05-05-|-0-5-0---|
		5|---------|---------|
		6|---------|---------|]!!

		   C         D7        G         Em
		[4|-------5-|-4-2-0---|---------|---------|
		5|---3-3---|-------3-|-2----32-|---------|
		6|---------|---------|---------|-3-------|]!!

		   C         D7        G         Em
		[4|-------2-|-0-------|---------|-2-------|
		5|---3-3---|---3-2-0-|-2----02-|---------|
		6|---------|---------|---------|---------|]!!

		   C         D7        G         G
		[4|-5--4--2-|-0-----4-|-5-05-05-|-0-5-0---|
		5|---------|---------|---------|---------|
		6|---------|---------|---------|---------|]!!

!		Куплет:
		   G        Em          C               D7
(1)		День как день, только ты почему-то грустишь,
		И вокруг все поют, только ты один молчишь.
		Потерял аппетит и не хочешь сходить в кино,
		Ты идёшь в магазин, чтобы купить вино.

!		Припев:
		 C               D7                G         Em
		Солнце светит и растёт трава, но тебе она не нужна.
		Всё не так и всё не то, когда твоя девушка больна.
		У-у-у-у, когда твоя девушка больна.
		 C   D7    G
		У-у-у-у, когда больна.

		    G         G
		[4|-5-05-05-|-0-5-0---|
		5|---------|---------|
		6|---------|---------|]!!


(2)		Ты идёшь в магазин, головою поник,
		Как будто иссяк чистый горный родник.
		Она где-то лежит, ест мёд и пьёт аспирин.
		И вот ты идёшь на вечеринку один.

		Солнце светит и растёт трава, но тебе она не нужна.
		Всё не так и всё не то, когда твоя девушка больна.
		На вечеринку один, когда твоя девушка больна.    (x3)
		...            когда твоя девушка больна.    (x3)

!		Проигрыш:  
		|-C-|-D7-|-G-|-Em-|
		|-C-|-D7-|-G-|-Em-|
		|-C-|-D7-|


		   G          G
		[4|-5-05-05-|-0-5-0---|
		5|---------|---------|
		6|---------|---------|]!!

		   C         D7        G         Em            
		[4|-------5-|-4-2-0---|---------|---------|      
		5|---3-3---|-------3-|-2----32-|---------|       
		6|---------|---------|---------|-3-------|]!!       |
		                                                 |       __
		   C         D7        G         Em              |      /  
		[4|-------2-|-0-------|---------|-2-------|       |  /     /
		5|---3-3---|---3-2-0-|-2----02-|---------|       |  X     /
		6|---------|---------|---------|---------|]!!       | /    /
		                                                 |      /___
		   C         D7        G         Em              |
		[4|-------5-|-4-2-0---|---------|-5-------|       |
		5|---3-3---|-------3-|-2----02-|---------|       |
		6|---------|---------|---------|---------|]!!       |
		                                                 |
		   C         D7        G         Em              |
		[4|-5--4--2-|-0-----4-|---------|---------|       |
		5|---------|---------|---------|---------|       /
		6|---------|---------|---------|---------|]!!      /
		                                               /



Аккорды, используемые в подборе:
Схема аккорда G Схема аккорда C Схема аккорда D7 Схема аккорда Em
Схема аккорда C- Схема аккорда D7- Схема аккорда G- Схема аккорда Em-



У этой песни отсутствуют табулатуры. Вы можете добавить табулатуры сами


Запросов к БД: 6
Генерация без шаблонов: 0.0050389766693115