В начало / Каталог / Русский, K / Кино / Неизвестный альбом / Восьмиклассница /


Текст песни

Количество правок текста: 2 Редактировать текст
*45* (1982)
		Восьмиклассница

		<   Am        Em>
(1)		Пустынной улицей вдвоем
		<    C           G>
		С тобой куда-то мы идем,
		<  F         G     C    Am>
		И я курю, а ты конфеты ешь.
		<  Am         Em>
		И светят фонари давно,
		<   C             G>
		Ты говоришь: "Пойдем в кино",
		<  F        G      C      Am>
		А я тебя зову в кабак, конечно.

		<F G         C         Am>
Припев:		У-у, восьмиклассница,
		<F G>
		У-у...
		<|Am:Em|>  } 4 раза

(2)		Ты говоришь, что у тебя по географии трояк,
		А мне на это просто наплевать.
		Ты говоришь, из-за тебя там кто-то получил синяк,
		Многозначительно молчу, и дальше мы идем гулять.

!		Припев.

(2)		Мамина помада, сапоги старшей сестры.
		Мне легко с тобой, а ты гордишься мной,
		Ты любишь своих кукол и воздушные шары.
		Hо в 10 ровно мама ждет тебя домой.

!		Припев.

!		Подкладка под проигрыш

!		  - natural harmonic.

		 |---<Am>--------<Em>-------------<Am>--------<Em>--------------------------|
		 |                                                                  |
		e|--[5]!!---------------[12]!!---[5]!!---------------[5]!!------------------|
		b|-----[5]!!----[5]!!---------------[5]!!----[5]!!-[5]!!----------------------|
		g|--------[5]!!----------------------[5]!!------------------------------|

!		Соло

		 |--<Am>-----------<C>-----<G>--------<не помню>--------------------------|
		 |                                                                  |
		e|---------------------------0--------------------------------------|
		b|----0-1-0--1-----------------3-1--0---1-------0-1-0--1------------|
		g|--2-----------/4-----2----------------------2-----------/4----2---|
		d|------------------------------------------------------------------|
		a|------------------------------------------------------------------|
		E|------------------------------------------------------------------|

		 |--------------<C>---------------------------------------------------|
		 |                                                                  |
		e|------------------------------------------------------------------|
		b|------0-----0-1---------------------------------------------------|
		g|--0-2-----2-------------------------------------------------------|
		d|------------------------------------------------------------------|
		a|------------------------------------------------------------------|
		E|------------------------------------------------------------------|

-

Intro:		<Am Em>
Verse:		<Am Em C G F G C Am>
Chorus:		<F G C Am>
Solo in chorus:	E -7--5--7--
		B -0--0--0--
		G -0--0--0--

-

ВСТУПЛЕНИЕ:	<Am E Am E Am E Am E>

(1)		<Am Em C G>
		Пустынной улицей вдвоём с тобой куда-то мы идём
		F G C Am
		И я курю, а ты конфеты ешь.
		Am Em C F
		И светят фонари давно, ты говоришь: Пойдем в кино
		F G C Am
		А я тебя веду в кабак конечно.

ПРИПЕВ:		<F G C Am F G>
		М-м-м Восьмиклассница

ПРОИГРЫШ:	<Am E Am E Am E Am E>

(2)		Ты говоришь, что у тебя по географии трояк,
		А мне на это просто наплевать.
		Ты говоришь, из-за тебя там кто-то получил синяк,
		Многозначительно молчу, и дальше мы идём гулять.

ПРИПЕВ:		М-м-м Восьмиклассница

ПРОИГРЫШ:	<Am E Am E Am E Am E>

(3)		Мамина помада, сапоги старшей сестры.
		Мне легко с тобой, а ты гордишься мной,
		Ты любишь своих кукол и воздушные шары.
		Но в 10 ровно мама ждёт тебя домой.

ПРИПЕВ:		М-м-м Восьмиклассница

ПРОИГРЫШ:	<Am E Am E Am E AM E>


Аккорды, используемые в подборе:
Схема аккорда F Схема аккорда G Схема аккорда C Схема аккорда Am
Схема аккорда Em


У этой песни отсутствуют табулатуры. Вы можете добавить табулатуры сами


Запросов к БД: 6
Генерация без шаблонов: 0.0033819675445557