В начало / Каталог / Русский, K / Кино / Неизвестный альбом / Звезда по имени Солнце (3) /


Текст песни

Количество правок текста: 1 Редактировать текст

   1|8--7---5---------------------------------5------------------------------------|
   2|------------5-------5---5---8--8--8--8------5----5-5-------------------5-----5|
   3|---------------7--------------------------------------7--7---7--7--7------7---|
   4|------------------------------------------------------------------------------|
   5|------------------------------------------------------------------------------|
   6|------------------------------------------------------------------------------|
      Бе-лый снег, се-рый лёд. На Рас-трес-кав-шей-ся зем-ле.   О-де -я-лом лоскутным 
	на ней

		[1|-------------------------
		2|---------------------5---
		3|7--7----7---7----7------7
		4|-------------------------
		5|-------------------------
		6|-------------------------]!!
		  Го-род в до-рожной пет-ле

!		*дальше так-же

		А над го-ро-дом плы-вут об-ла-ка За-кры-вая не-бес-ный свет. 
		А над го-ро-дом жёл-тый дым
		Го-ро-ду две ты-ся-чи лет,

!		*конец куплета
		[1|---------------------------------------5------
		2|----------------------------------------------
		3|--7-7-5-7-----7-7-5-7-----7-7-5-7--------5----
		4|--------------------------------------------7-
		5|----------------------------------------------
		6|----------------------------------------------]!!
		  Прожитых под светом звезды по имени   Солнце

!		*для остальных куплетов тоже самое





У этой песни отсутствуют табулатуры. Вы можете добавить табулатуры сами


Запросов к БД: 6
Генерация без шаблонов: 0.0025889873504639