В начало / Каталог / Русский, N / Nirvana / Неизвестный альбом / Oh Me /


Текст песни

Количество правок текста: 1 Редактировать текст
MTV Unplugged In New York (1994)
		Oh Me

PART A:		INTRO + VERSES

		           E               D              D          C           E
		[e-------------0--|--------------|------------------|-----0-----|---0---
		B-------------0--|------------3-|------------3-----|-----1-0-0-|---0---
		G-------------1--|------------2-|------------2--0-0|-----0-0-0-|---1---
		D------2--2-2----|------2-0-0-0-|------2-0-0-0--0-0|-2-2-------|-2-----
		A--0-2----2-2----|--0-2---0-0---|--0-2---0-0-------|-3-3-------|-2-----
		E-4--------------|-4------------|-4----------------|-----------|-0-----]!!

		   If I had to loose a mile, if I had to touch feelings
		   I would loose my soul, the way I do
		   ....

PART B:		CHORUS

		   G         E      G           E
		[e-3--3-3-3-----0-|-3--3-3-3----0-|
		B-0--0-0-0-----0-|-0--0-0-0----0-|
		G-0--0-0-0-----1-|-0--0-0-0----1-|
		D-----------2-2--|----------2-2--|
		A-----------2-2--|----------2-2--|
		E-----------0-0--|----------0-0--|]!!

PART C:		END OF CHORUS

		          C            D         E
		[e-------------0-----|---------------0---
		B-------------1-----|-----3---------0---
		G---------0-0-0-0-0-|-2-2-2-2-2-----1---
		D------2--2-2---2-2-|-0-0-0-2-2-0-0-----
		A--0-2----3-3---3-3-|-0-0---0-0-0-0-----
		E-4-----------------|-------------------]!!

PART D:		SOLO

		[e---------------------------3/2-----------2/5-5-5-3-2-----------------------
		B-------------------3-3^5~------5--(3-5)-5------------5/3-----------3-5~----
		G------------2-4~-----------------------------------------4-2-2-2/4---------
		D------2-2^4----------------------------------------------------------------
		A--0-2----------------------------------------------------------------------
		E-4-------------------------------------------------------------------------]!!

PART E:		OUTRO

!		Используйте те же самые аккорды как часть (C): <C>-<D>-<E>
!		Но теперь лучше как слайд с <C> на <D> и с <D> на <E>.

		~   = вибрировать   | вступление
		/   = слайд         |Куплет 1 + Припев
		^   = прижать       |Соло
		( ) = играть нежно  |Куплет 2 + Припев
		                    |Концовка

Text:		if i had to lose a mile
		if i had to touch feelings
		i would lose my soul
		the way i do

		i don't have to think
		i only have to do it
		the results are always perfect
		and that's old news

		would you like to hear my voice
		sweetened with emotion
		invented at your birth?

		i can't see the end of me
		my whole expanse i cannot see
		i formulate infinity
		and store it deep inside of me

Открытый риф:	[-------------
		-------------
		-------------
		-------------
		---------7--
		--4-5-7------]!!

!		Идущий за <E D D C>

!		Остальное - та же комбинация <C>, <D> и <E>.
!		Надеюсь вам это пригодится :-)

-

Intro/Verse:	Riff A
		1|-----------0--0-0---------------------------------------
		2|-----------0--0-0-----------2--2-2-----------2--2-------
		3|-----------1--1-1-----------3--3-3-----------3--3----5-5
		4|-----------2--2-2-----------0--0-0-----------0--0----5-5
		5|-------7--2--2-2-------75--------------75------3--3-3
		6|-4/5-7---0-0--0-0-4/5-7------------4/5-7----------------

		1|----0-
		2|----0-
		3|----1-
		4|----2-
		5|----2-
		6|-0--0-
!		play that 1x as an intro.
!		During the verse, play Riff A 2x, then play this:
		1|-----------0--0-0----------------------------------------------
		2|-----------0--0-0----------------------------------------------
		3|-----------1--1-1-----------5--5-5--5--5--5-5-5------7--7-7-7-7
		4|-----------2--2-2-----------5--5-5--5--5--5-5-5------7--7-7-7-7
		5|-------7--2--2-2-------73-3--3-3--3--3--3-3-3-3/5--5--5-5-5-5
		6|-4/5-7---0-0--0-0-4/5-7----------------------------------------

		1|----0-
		2|----0-
		3|----1-
		4|----2-
		5|----2-
		6|-0--0-

Chorus:		<G E>

End Of Chorus:	1|-----------------------------------------0-
		2|-----------------------------------------0-
		3|----------5--5--5-5-5-5----7--7-7-7-7----1-
		4|----------5--5--5-5-5-5----7--7-7-7-7----2-
		5|-------7-3--3--3-3-3-3/5--5--5-5-5-5----2-
		6|-4/5-7--------------------------------0--0-

Solo:		Guitar 1 plays Riff A
!		Guitar 2
		1|---------------------------32---------2/5-5-5-3-2--------------------
		2|--------------------3-3^5~-----5-3-5-5-------------53-----------3-5~~
		3|-------------2-4~--------------------------------------4-2-2-2/4------
		4|-------2-2^4----------------------------------------------------------
		5|---0^2----------------------------------------------------------------
		6|-4--------------------------------------------------------------------

!		TABULATURE DEFINITION
!		What all the little symbols in the tab mean...
!		)   = Bend
!		/   = slide
!		~~  = vibrato
!		^   = hammeron/pulloff
!		PM  = Palm mute
!		*   = uncontrolled feedback
!		xx = pick scrape
!		NH  = Natural Harmonic
!		+   = Tremelo Pick
!		)   = Unison Bend
!		)
!		@@@@@=Smash Guitar


Аккорды, используемые в подборе:
Схема аккорда E Схема аккорда D Схема аккорда C Схема аккорда G



У этой песни отсутствуют табулатуры. Вы можете добавить табулатуры сами


Запросов к БД: 6
Генерация без шаблонов: 0.0055501461029053