В начало / Каталог / Русский, N / Nirvana / Неизвестный альбом / Plateau /


Текст песни

Количество правок текста: 1 Редактировать текст
MTV Unplugged In New York (1994)
		"Plateau" - Nirvana with the Meat Puppets
!		From Nirvana's Unplugged

!		INTRO - Main riff

		[--3-------6-------3-------6-------3-------6-------1-----
		------------------------------------------------------1-
		----------------------------------------------------0---
		------0-------0-------0-------0-------0-------0---------
		----2-------5-------2-------5-------2-------5-----------
		--3-------6-------3-------6-------3-------6-------1-----]!!

!		Это играют со следующими (подвижными) формами:
		<G>        [320x33]!!
		<Bb>       [650x66]!!
		<Fsus2>    [1xx011]!!
!		Иногда рифы меняются, играя на самой высокой ноте
!		на струне 2 (<B>) вместо струны 1 (<E>). Играя эту песню,
!		старайтесь обыгрывать <E>, <A> и <D> струны.

!		VERSE - w/ главный риф

!		PRE-CHORUS - 2/4
		[--4---------
		---------4--
		-------0----
		------------
		------------
		--4---------]!!

!		CHORUS

		'Nothing on top but a bucket and a mop and an..

		[--1/3--------------------------------------------------
		--1/3------------------------3---------3---------------
		-----------------------------3---------3---------------
		------------5---x------------3---------3---------------
		------------5---x-----1--------------------------------
		---------3-------------------------1-------------------]!!

		 ..illustrated book about birds'

		[---------------3---------------------------------------
		---------------3-----------------6---------------------
		---------------------------------7---------------------
		---------------------------------8---------------------
		---5---------------------------------------------------
		---3----------------------/6---------------------------]!!

!		etc.

!		PRE-OUTRO

		[--4----------------4---6-----------------6-------------
		---------4-------4------------6--------6---------------
		-------------------------------------------------------
		------0-------0------------0-------0-------------------
		----3-------3------------5-------5---------------------
		--4--------------------6-------------------------------]!!

!		OUTRO

!		        *                                 repeat from *
		[------------------------------0-----|------------------
		--------------0-------2---------1p0-|-----2------------
		------2-----2---2---2-------2-------|---2--------------
		----2-----2-------0-------0---------|-2----------------
		--0-----0---------------3-----------|------------------
		------------------------------------|------------------]!!

!		While the line above is played by a Meat Puppet, Krist plays:

		[--------0-------------2-------0-----
		------------2-----------3-----1-----
		--------------2---------------------
		----------------2-------------------
		------------------------------------
		------------------------------------]!!

-

Verse:		Guitar 1
		1|-3------6------3------6-----3------6------1------------
		2|-----------------------------------------------1------1
		3|---------------------------------------------0------0--
		4|-----0------0------0------0-----0------0---------------
		5|---2------5------2------5-----2------5-----------------
		6|-3------6------3------6-----3------6------1-------1----
!		Guitar 2
		1|-3------6------3------6-----3------6------1
		2|-3------6------3------6-----3------6------1
		3|-------------------------------------------
		4|-------------------------------------------
		5|-2------5------2------5-----2------5-------
		6|-3------6------3------6-----3------6------1
!		play that 3x, then play
!		Guitar 1
		1|-3-----6-----3-----1------3------1------------------
		2|------------------------1-------------1--1---1-----1
		3|----------------------0-------------0------0-----0--
		4|-----0-----0-----0------------0---------------------
		5|---2-----5-----2------------2-----------------------
		6|-3-----6-----3-----1------3------1-------0-----0----
!		Guitar 2
		1|-3-----6-----3-----1------3------1-------1
		2|-3-----6-----3-----1------3------1-------0
		3|------------------------------------------
		4|------------------------------------------
		5|-2-----5-----2------------2---------------
		6|-3-----6-----3-----1------3------1-------0

Pre Chorus:	1|-4-----
		2|------4
		3|----0--
		4|-------
		5|-------
		6|-4-----

Chorus:		1|-1/3-------------------------3--------
		2|-1/3-------------------------3-------6
		3|---------------3-----3---------------7
		4|--------5------3-----3---------------8
		5|--------5---1------------5------------
		6|------3----------1-------3-------/6---

Pre Outro:	1|-4--------------4-6-------------6
		2|-------4------4---------6-----6--
		3|---------------------------------
		4|-----0-----0----------0-----0----
		5|---3-----3----------5-----5------
		6|-4----------------6--------------

Outro:		Guitar 1
		1|--------------------------------0----
		2|---------------0-------2----------1^0
		3|-----2-------2---2---2--------2------
		4|---2---2---2-------0--------0--------
		5|-0-------0----------------3----------
		6|-------------------------------------
!		Guitar 2
		1|---------0-------------2--------0
		2|-------------2-----------3------1
		3|---------------2-----------------
		4|-----------------2---------------
		5|---------------------------------
		6|---------------------------------
!		play that a few times.

!		TABULATURE DEFINITION
!		What all the little symbols in the tab mean...
!		)   = Bend
!		/   = slide
!		~~  = vibrato
!		^   = hammeron/pulloff
!		PM  = Palm mute
!		*   = uncontrolled feedback
!		xx = pick scrape
!		NH  = Natural Harmonic
!		+   = Tremelo Pick
!		)   = Unison Bend
!		)
!		@@@@@=Smash Guitar




У этой песни отсутствуют табулатуры. Вы можете добавить табулатуры сами


Запросов к БД: 6
Генерация без шаблонов: 0.0056378841400146