В начало / Каталог / Русский, P / Песни из мультфильмов / Неизвестный альбом / Про Чебурашку (2) /


Текст песни

Количество правок текста: 1 Редактировать текст

		  Am                 E
		  Я был когда-то странной
		[3|---------2----|
		2|-------1---1-0|
		1|-0-1-0--------|]!!

		             Am
		  Игрушкой безымянной
		[3---|
		2|-3---3-0-3----|
		1|---0-------1-0|]!!

		      C          G
		  К которой в магазине
		[3---|
		2|---------1---3|
		1|-3-5-3-0---0--|]!!

>		                 С
		  Никто не подойдет
		[3---|
		2|-3---3--------|
		1|---0----0--1-3|]!!

		    A7        Dm
		  Теперь я Чебурашка
		[3---|
		2--3|
		1|-0-5-5-0-3-1--|]!!

		    G        C
		  И каждая дворняжка
		[3---|
		2|-3-----3------|
		1|---3-3---1-0-0|]!!

		      Dm       Am
		  При встрече, сразу
		[3---|
		2|-----3---1----|
		1|-3-1---0------|]!!

		    E    Am
		  Лапу подает
		[3--2|
		2|----3--0--1---|
		1|-0------------|]!!

!		Дальше слов я не знаю, чето про Гену,
!		но все дальше играется в том же темпе.



Аккорды, используемые в подборе:
Схема аккорда Am Схема аккорда E Схема аккорда C Схема аккорда G
Схема аккорда A7 Схема аккорда Dm


У этой песни отсутствуют табулатуры. Вы можете добавить табулатуры сами


Запросов к БД: 6
Генерация без шаблонов: 0.013717889785767