В начало / Каталог / Русский, S / Slipknot / Неизвестный альбом / Eyeless /


Текст песни

Количество правок текста: 1 Редактировать текст
Slipknot (1999)
		Eyeless

Настройка:	<B F# B E G# C#>

!		Рифф A играется с/ Ring Modulator

		[C#-12-12-12----12----12-12-12-12-12-12-12-12-12-12-----
		G#----------16----16-16-16-16-16-16-16-16-16-16-16-----
		E -----------------------------------------------------
		B -----------------------------------------------------
		F#-----------------------------------------------------
		B -----------------------------------------------------]!!

!		Рифф Б x2

		[-----------------------------------------------------
		-----------------------------------------------------
		-----------------------------------------------------
		-----------------------------------------------------
		---------2---1---------------------------------------
		-0-0-0-3---3---2-0-0---------------------------------]!!
		 . . .           . .

!		Рифф В

		[-----------------------------------------------------
		-----------------------------------------------------
		-----------------------------------------------------
		-------------------------------1---------------------
		---------2---1---------2-----1-----------------------
		-0-0-0-3---3---2-0-0-0---0-0-------------------------]!!
		 . . .           . . .   . .

!		Фиг 1. x4

		[----------------------------------------------------------------
		----------------------------------------------------------------
		----------------------------------------------------------------
		----------------------------------------------------------------
		-------3---2-3-----5-6-----6-8-------3---2-3-----5-6-----6-8----
		-0-0-0-3-0-2-3-0-0-5-6-0-0-6-8-0-0-0-3-0-2-3-0-0-5-6-0-0-6-8----]!!

!		Куплеты
!		Фиг 2.

		[----------------------------------------------------------------
		----------------------------------------------------------------
		----------------------------------------------------------------
		----------------------------------------------------------------
		---------3---2-3------------------------3---2-3-----------------
		-0-0-0-0-3-0-2-3----------------0-0-0-0-3-0-2-3-----------------]!!

!		Припевы: Фиг 1 x4

!		Мост: Фиг 3

		[-----------------------------------------------------
		-----------------------------------------------------
		-----------------------------------------------------
		-3-3-3---3-3-3-3-3-3-3---3-3-3-3---3-3-3-3-3-3-3-----
		-2-2-2---2-2-2-2-2-2-2---2-2-2-2---2-2-2-2-2-2-2-----
		-----------------------------------------------------]!!

!		Фиг 4.

		[-----------------------------------------------------
		-----------------------------------------------------
		-----------------------------------------------------
		-----------------------------------------------------
		-0-0-0-----------0-0-1---0-0-1-----------------------
		-0-0-0--6~~~~~~~-0-0-1---0-0-1-----------------------]!!

!		Интерлюдия:

!		Рифф Г

		[-----------------------------------------------------
		-----------------------------------------------------
		-----------------------------------------------------
		-----------------------------------------------------
		-----------------------------------------------------
		-0-------------4------------1--------2---------------]!!

!		pm все ноты (второй раз без pm)
		[-----------------------------------------------------------------
		-----------------------------------------------------------------
		-----------------------------------------------------------------
		-----------------------------------------------------------------
		-----------------------------------------------------------------
		-0-0-0-0-0-0-0-0-4-4-4-4-4-4-4-4-1-1-1-1-2-2-2-2-2-2-2-2-2-2-2-2-]!!

!		Концовка:

!		Фиг 5.

		[-----------------------------------------------------------------
		-----------------------------------------------------------------
		-----------------------------------------------------------------
		-----------------------------------------------------------------
		-0-0-0---------0-0-1---0-0-1--0-0-0----------0-0-1---0-0-1-------
		-0-0-0-6~~~~~~-0-0-1---0-0-1--0-0-0-6~~~~~~~-0-0-1---0-0-1-------]!!

-

Text:		(Yeah)

		Insane - Am I the only muthafucka with a brain?
		I'm hearing voices but all they do is complain
		How many times have you wanted to kill
		Everything and everyone, Say you'll do it but never will

		You can't see California without Marlon Brando's eyes (x3)

		I am my Father's son
		He's a phantom, a mystery and that leaves me
		Nothing!
		How many times have you wanted to die?
		It's too late for me. All you have to do is get rid of me!

		You can't see California without Marlon Brando's eyes (x3)

		It's all in your head
		It's all in my head
		It's all in your head
		yeah

		I tried - You lied to me for so long
		Everywhere I go, there's a sense of it
		Freak on my antics and give me a choice
		Doesn't matter if I give a shit
		It's shit that you gave me

		You can't see California without Marlon Brando's eyes (x3)

		It's all in your head
		It's all in my head
		It's all in your head
		yeah

		Do you wanna feel pain? Takin' my name in vain
		Caring never felt so lame inside
		Anybody else got pride? Do you wanna take my life?
		Maybe I'll reverse my ride
		Who the fuck are you? Fuck you!
		Better suck it up cuz you bled through
		Better get away from me
		Stay the fuck away from me!

		I feel safe - Seems your saved (x2)

		Look me in my brand new eye (x3)

		(Motherfucker)

		Look me in my brand new eye (x3)
		Look me in my brand new




У этой песни отсутствуют табулатуры. Вы можете добавить табулатуры сами


Запросов к БД: 6
Генерация без шаблонов: 0.016700983047485