В начало / Каталог / Русский, T / Тайм-Аут / Неизвестный альбом / Ехан Палыч /


Текст песни

Количество правок текста: 1 Редактировать текст
Квачи прилетели Live (1994), Тайм Аут в "Секстоне" (1994), Ёхан Палыч Forever (1995)
		Ехан Палыч
!		(В. П. Рапитура)

		    D
		Почтенная оца на небо летит
		         A
		О, Ёхан Палыч.
		Тpава зеленеет и солнце блестит
		           D
		Ты нас не бойся.

		Петух улюлюйский в штаны мне залез
		О, Ёхан Палыч
		Баpахтался долго, а после исчез
		Ты нас не бойся

		Втоpого пpишествия больше не ждем
		О, Ёхан Палыч
		Hалив по стаканам вино мы поем
		Ты нас не бойся

		Большой Рапитос гpустно с ели упал
		О, Ёхан Палыч
		Он pуку и ногу и шею сломал
		Ты нас не бойся

		Большая тусовка спускается с гоp
		О, Ёхан Палыч
		А я достаю свой тяжелый топоp
		Ты нас не бойся

		Пpоклятое Солнце укpылось в кусты
		О, Ёхан Палыч
		Мы песни поем, наши мозги пусты
		Ты нас не бойся.

		Ёхан Палыч взлетел над одним из полей
		Улюлюя
		Он тащился под звуки волынки
		И скpежет гитаp.

-

		    D
		Почтенная оца на небо летит.
		             A
		1- О Ёхан Палыч.
		    A
		Трава зеленеет и солнце блестит.
		              D
		2- Ты нас не бойся.
		Петух улюлюйский в штаны мне залез.
		1-
		Барахтался долго, а после исчез.
		2-

		(Зарею вечерней сияет луна
		1-
		Она индевеет, задохлась она
		2- - куплет время от времени поется на концертах)

		Большой рапитос грустно с ели упал.
		1-
		Он руку и ногу, и шею сломал.
		2-

		Проклятое солнце укрылось в кусты.
		1-
		Мы песни поём, наши мозги пусты.
		2-

		Второго пришествия больше не ждём.
		1-
		Налив по стаканам вино, мы поём.
		2-

		Большая тусовка спускается с гор.
		1-
		А я достаю свой тяжёлый топор.
		2-

		Ёхан Палыч взлетел над одним из полей улюлюя.
		Он тащился под звуки волынки и скрежет гитаррррррррррррррррррррррр.

-

		[e|--------------0-2-0-------|-2--3--2-2-0---|
		 |---3-3--3-3-3-------3-----|---------------|
		 |-2--------------------2^^-|---------------|
		 |--------------------------|---------------|
		 |--------------------------|---------------|
		E|--------------------------|---------------|

		e|---0-0--0-0-0-2-3-2-0-----|-3--2--0-0-----|
		 |--------------------------|-----------3---|
		 |-2--------------------2^^-|---------------|
		 |--------------------------|---------------|
		 |--------------------------|---------------|
		E|--------------------------|---------------|]!!

		 D
(1)		Почтенная оца на небо летит.
		       A
		О Ёхан Палыч.
		Трава зеленеет и солнце блестит.
		          D
		Ты нас не бойся.

(2)		Петух улюлюйский в штаны мне залез.
		О Ёхан Палыч.
		Барахтался долго, а после исчез.
		Ты нас не бойся.

(3)		Зарею вечерней сияет луна
		О Ёхан Палыч.
		Она индевеет, задохлась она
		Ты нас не бойся.

(4)		Большой рапитос грустно с ели упал.
		О Ёхан Палыч.
		Он руку и ногу, и шею сломал.
		Ты нас не бойся.

(5)		Проклятое солнце укрылось в кусты.
		О Ёхан Палыч.
		Мы песни поём, наши мозги пусты.
		Ты нас не бойся.

(6)		Второго пришествия больше не ждём.
		О Ёхан Палыч.
		Налив по стаканам вино, мы поём.
		Ты нас не бойся.

(7)		Большая тусовка спускается с гор.
		О Ёхан Палыч.
		А я достаю свой тяжёлый топор.
		Ты нас не бойся.

Концовка:	Ёхан Палыч взлетел над одним из полей улюлюя.
		Он тащился под звуки волынки и скрежет гитаррррррррррррррррррррррр.


Аккорды, используемые в подборе:
Схема аккорда D Схема аккорда A


Табулатуры

Количество правок табулатуры: 4
Редактировать табулатуру
4[b][b][b][b][b][b][b][i][i]1||-------------------------------------------------------------------|
2||-------------------------------------------------------------------|
3||-------------------------------------------------------------------|
4||-------------------------------------------------------------------|
5||-------------------------------------------------------------------|
6||-------------------------------------------------------------------|
1||-------------------------------------------------------------------|
2||-------------------------------------------------------------------|
3||-------------------------------------------------------------------|
4||-------------------------------------------------------------------|
5||-------------------------------------------------------------------|
6||-------------------------------------------------------------------|
|-------------------------------------------------------------------|
2||-------------------------------------------------------------------|
3||-------------------------------------------------------------------|
4||-------------------------------------------------------------------|
5||-------------------------------------------------------------------|
6||-------------------------------------------------------------------|
1||-------------------------------------------------------------------|
2||-------------------------------------------------------------------|
3||-------------------------------------------------------------------|
4||-------------------------------------------------------------------|
5||-------------------------------------------------------------------|
6||-------------------------------------------------------------------|
[/i][/i][/b][/b][/b][/b][/b][/b][/b]


Запросов к БД: 7
Генерация без шаблонов: 0.004364013671875