В начало / Каталог / Русский, V / Вивальди Антонио / Неизвестный альбом / Концерт в Dm /


Текст песни

Количество правок текста: 1 Редактировать текст

		Концерт в Dm

!		Красивый кусок, который просто играется.

		[e-----------------------------------------------------------
		b---7-8-10---7-10-7-5---------12-10-8-7-10---7-10-7---------
		g-7--------7----------6-7-9----------------7--------9-7-9---
		d-0-----------------0-------7---------0-------------------7-
		a-------------------------------------------------------0---
		e-----------------------------------------------------------

		e----------------------7^5-7-7---------------------------------
		b-10-10-7-----10-7-------------12^10-12-12-12--------12--------
		g---------9-7------9-7---------10-------------9-10-9----9-10-9-
		d----0-----------------5---------------------------------------
		a--------------------------------------------------------------
		e------------------------------------------9-------------------

		e----------------------------------------4^5-7-5-4-2-----
		b-10^8-10-10-10^8-10-10-10-------8-------------------5-3-
		g--------------------------7-9-7---7-9-7------------------
		d---------------------------------------------------------
		a-9--------------------------------------0----------------
		e-----------------------7--------7------------------------

		e---------0-------5---------------5-7-5-7-5-7----------
		b-2-2-------2-------2-----2-2-----------------10-12-12-
		g-----4-2-----4-2-----4-2-----4-2-------------------0--
		d------------------------------------------------------
		a-0---------------0-------0-------0--------------------
		e------------------------------------------------------

		e-----------------------------------
		b-10-9-----------------10------9-10-
		g------11-9----------9---------7-9--
		d-----------12-11-11------11-9---11-
		a-----------------0----------0---0--
		e-----------------------------------

		e-----------7---------------3-2-0---------2---------------
		b-8-------8---8-----2---2-5-------3^2---------3---3---3---
		g---9---9-------8-3---3---------------4-----4---4---4---4-
		d-----9---------------------------------------------------
		a-7---------------1---------------2-----2-----------------
		e---------------------------------------------------------

		e-2---------------7-------------------7-------------------
		b-----3---3---3--------8----8----8---------8----8----8----
		g---4---4---4---4---11---11---11---11---11---11---11---11-
		d---------------------------------------------------------
		a---------------------------------------------------------
		e-----------------7---------------------------------------

		e-7----------------------0-2-3-----------------------------
		b--------------------2-3---------7-8-10---7-10-7-5---------
		g---11-9-7-6-4-4-2-4-----------7--------7----------6-7-9---
		d--------------2---------------0-----------------7-------7-
		a----------------------------------------------------------
		e-7--------------------------------------------------------

		e---7---------5-5-7-5-----------------7-7-9-7------------
		b-8---8-7^5-----------8-7-5-------------------10-9-7-----
		g-----------7---------------7-6-4-2-0----------------9-7-
		d-------0-------0-----------------------0----------------
		a--------------------------------------------------------
		e-------------------------------3------------------------

		e-----------------------------------------------
		b---------5-8---7---0---0---0---7---0---0---0---
		g-6-----6---------------------------------------
		d---9-7-----------7---7---7---7---7---7---7---7-
		a-0-----------0---------------------------------
		e-----------------------------------------------

		e-0-------------------------------2-3-5-------------
		b-----0---0---0---8---0---0---0---------3---5---3-3-
		g---------------------------------------------------
		d---7---7---7---7---7---7---7---7-0-----------5---4-
		a-----------------0-----------------------0-------5-
		e---------------------------------------------------]!!




У этой песни отсутствуют табулатуры. Вы можете добавить табулатуры сами


Запросов к БД: 6
Генерация без шаблонов: 0.002763032913208