В начало / Каталог / Русский, Z / Zdob Si Zdub / Неизвестный альбом / Zdobi Bateti Tare /


Текст песни

Количество правок текста: 1 Редактировать текст

		Zdobi Bateti Tare

!		Подобрала только табы,
!		так как в песне всего два аккорда

		        E
		[E--5-4-5--7--5-4-------|--7--5-4-----4-----|
		B----------------6-5---|---------6-5-------|
		G----------------------|-------------------|
		D----------------------|-------------------|
		A----------------------|-------------------|
		E----------------------|-------------------|

		E-7--5-4-------------|--7--5-4-----4-----|
		B----------6--5------|---------6-5-------|
		G-----------4--------|-------------------|
		D--------------------|-------------------|
		A--------------------|-------------------|
		E--------------------|-------------------|

		E-4-5--7--5-4-------|--7--5-4-----4------|
		B-------------6-5---|---------6-5--------|
		G-------------------|--------------------|
		D-------------------|--------------------|
		A-------------------|--------------------|
		E-------------------|--------------------|

		    Dm
		E-7--5-4-------------|-7--5-4-5------------|
		B---------6-5--------|----------6-5--------|
		G-------------7------|---------------------|
		D--------------------|---------------------|
		A--------------------|---------------------|
		E--------------------|---------------------|]


Аккорды, используемые в подборе:
Схема аккорда E Схема аккорда Dm


У этой песни отсутствуют табулатуры. Вы можете добавить табулатуры сами


Запросов к БД: 6
Генерация без шаблонов: 0.0072190761566162