В начало / Каталог / Русский, Z / Звери / Неизвестный альбом / Маленькая С (2) /


Текст песни

Количество правок текста: 1 Редактировать текст

		<   Am          D        Em>
(1)		Мы запускаем в космос корабль
		<    Am        D       Em>
		Включается протянутый кабель
		<   Am       D>
		Планета голубая
		<  G         C>
		Пока мы исчезаем
		<  Am   Em>
		Пока пока

		<   Am          D        Em>
		Вокруг темно и можно разбиться
		<   Am         D      Em>
		Не хочется но это случится
		<  Am        D>
		Алло не отвечали
		<   G          C>
		Мы быстро исчезали
		<   Am         C>
		Мы быстро исчезали
		<    C        H>
		И с нами исчезали

		< C             D>
Припев:		Звёзды в звездолётах
		< Hm       Em>
		Храбрые пилоты
		<C           Am         Em>
		Расставанье маленькая "с"
		< C         D>
		Провода искрятся
		<Hm         Em>
		Нам не удержаться
		<C           Am        Em>
		Расставанье маленькая "с"

(2)		Я нажимаю первую слева
		Толчок прощай созвездие девы
		Садишься и включаешь
		Ты точно улетаешь
		Пока пока

		Антенны выше крыши антенны
		Посадка высадка на измены
		Ломались сигареты
		Мы потерялись где-то
		Мы потерялись где-то
		Мы потерялись где-то

Припев:		Звёзды в звездолётах
		Храбрые пилоты
		Расставанье маленькая "с"
		Провода искрятся
		Нам не удержаться
		Расставанье маленькая "с"

(3)		Мы запускаем в космос корабль
		Включается протянутый кабель
		Планета голубая
		Пока мы исчезаем
		Пока пока

		Вокруг темно и можно разбиться
		Не хочется но это случится
		Алло не отвечали
		Мы быстро исчезали
		Мы быстро исчезали
		И с нами исчезали

Припев:		Звёзды в звездолётах
		Что же вы пилоты
		Расставанье маленькая "с"
		Провода искрятся
		Нам не удержаться
		Расставанье маленькая "с"

!		Соло:
		C  D  Em         C   D     Em      C D  Em         C     D       Em
		E-----------------------------------|-------------------------------------|
		H-----------------10-8--8-8-7-------|---------------10-8--8--8--7-8-10-12-|
		G----7-7-----7--7-------------9-7-9-|---7-7----7--7---------9-------------|
		D--9--------9--9--------------------|-9-------9--9------------------------|
		A-----------------------------------|-------------------------------------|
		E-----------------------------------|-------------------------------------|

		E------7/10---7/10-7/10---14-12--12-12-14-12-10-12-|
		H--------------------------------------------------|
		G----7---------------------------------------------|
		D--9-----------------------------------------------|
		A--------------------------------------------------|
		E--------------------------------------------------|

		E-12-10/12--10/12-12/10-10/12-12p10h12--12-10----10----------------------------|
		H---------------------------------------------12----12-10--12-10----10---------|
		G----------------------------------------------------------------12----12-11-9-|
		D------------------------------------------------------------------------------|
		A------------------------------------------------------------------------------|
		E------------------------------------------------------------------------------|

		E-------------7------------------------------------|----------------------------------------|
		H------8--8-8-8-8-10-10-8-8-8-10-8-7---10-10p8-7---|------------------10-8--8--8--7-8-10-12-|
		G----7---9-9-------9--9---9----9-----9------------9|------7--7---7--7---------9-------------|
		D--9-----------------------------------------------|9--9--9-------9-------------------------|
		A--------------------------------------------------|----------------------------------------|
		E--------------------------------------------------|----------------------------------------|
		C   Am   Em   C   Am    Em
		E----------------------------|
		H---8-8-7---------8-8-7------|
		G---9----9-7-9----9-----9-7-9|
		D----------------------------|
		A----------------------------|
		E----------------------------|




У этой песни отсутствуют табулатуры. Вы можете добавить табулатуры сами


Запросов к БД: 6
Генерация без шаблонов: 0.0066769123077393