В начало / Каталог / Русский, 3 / 3 Doors Down / Неизвестный альбом / Be Like That /


Текст песни

Количество правок текста: 1 Редактировать текст

		Be Like That

!		Fig#1
!		Play this 6 times
		[E|--------3-------------------------------0--------------------|
		B|----------3---3--------5--------------3---3------------3-----|
		G|-------------------------7---7----0---------0--------5---5---|
		D|----5-------5------7-------7----2---2------------5---------5-|
		A|------5----------5---5-------------------------3---3---------|
		E|--3----------------------------------------------------------|]!!
!		After the 6th time while he's singing "if i could be like that"
!		Play this. I can't tell you how many times each chord is played so
!		You'll have to play with the song.
!		Fig#2
		[E|----------------------------|
		B|-------5----7----3----------|
		G|--4----7----9----5----------|
		D|--5----7----9----5----------|]!!




У этой песни отсутствуют табулатуры. Вы можете добавить табулатуры сами


Запросов к БД: 6
Генерация без шаблонов: 0.0022749900817871