В начало / Каталог / Русский, A / Албениз Исаак / Неизвестный альбом / Арабская серенада /


Текст песни

Количество правок текста: 1 Редактировать текст

		Арабская серенада

!		Темп: 100
!		Размер: 3/4

		[E|-0-----------------|-0-----------------|-0-----------------|
		B|-------------------|-------------------|-------------------|
		G|---4-2-0-2---------|---4-2-0-2---------|---4-2-0-2---------|
		D|--------------3----|--------------3----|--------------3----|
		A|---------3---------|---------3---------|---------3---------|
		E|-0-----------------|-0-----------------|-0-----------------|]!!

		|-0-----------------|-0---2--3---2---3--5---5---3--2---|
		|-------------------|----------------------------------|
		|---4-2-0-2---------|----------------------------------|
		|--------------3----|-2----------1----------4----------|
		|---------3---------|----------------------------------|
		|-0-----------------|----------------------------------|

		|-3---2--3---0------0---2---0--2---|------------0------0---2---1--2---|
		|-0----------1---4------1----------|-4---3--4---0---4------1----------|
		|----------------------------------|-2--------------------------------|
		|-2--------------------------------|----------------------------------|
		|------------3----------0----------|-2---------------------0----------|
		|----------------------------------|------------3---------------------|

		|------------------------------------|-0-----------------|-0-----------------|
		|-0------0---5-----------4-----------|-------------------|-------------------|
		|-0---3---------4--2--0-----2--0-----|---4-2-0-2---------|---4-2-0-2---------|
		|---------------------------------4--|-2------------4----|-2------------4----|
		|-2----------2-----------2-----------|---------3---------|---------3---------|
		|------------------------------------|-------------------|-------------------|

		|-0-----------------|-0-----------------|-0---2--3---2---3--5---5---3--2---|
		|-------------------|-------------------|----------------------------------|
		|---4-2-0-2---------|---4-2-0-2---------|----------------------------------|
		|-2------------4----|-2------------4----|-2----------1----------4----------|
		|---------3---------|---------3---------|----------------------------------|
		|-------------------|-------------------|----------------------------------|

		|-3---2--3---0------0---2---1--2---|------------0------0---2---1--2---|
		|-0----------1---4------1----------|-4---3--4---0---4------1----------|
		|----------------------------------|-2--------------------------------|
		|-2--------------------------------|----------------------------------|
		|------------3----------0----------|-2---------------------0----------|
		|----------------------------------|------------3---------------------|

		|------------------------------------|-0-----------------|-0-----------------|
		|-0------0---5-----------4-----------|-------------------|-------------------|
		|-0---3---------4--2--0-----2--0-----|---4-2-0-2---------|---4-2-0-2---------|
		|------------2--------------------4--|-2------------4----|-2------------4----|
		|-2----------------------2-----------|---------3---------|---------3---------|
		|------------------------------------|-------------------|-------------------|

		|-0-----------------|-0-----------------|-7---7--7---|
		|-------------------|-------------------|-8---8--8---|
		|---4-2-0-2---------|---4-2-0-----------|------------|
		|-2------------4----|-2-------7----4----|---4-5--4---|
		|---------3---------|-------------------|-7--------7-|
		|-------------------|---------8---------|------------|

		|-7---------7---------7-----------|-7---7--7---|
		|-10--------10--------10----------|-8---8--8---|
		|---------------------------------|------------|
		|--------------------------5------|-----5------|
		|-9-------------------9-------9---|-7-9----9-7-|
		|-----------7---------------------|------------|

		|-7---------7---------7-----------|-7---7---7--|-10------8--|-7-----------|
		|-10--------10--------10----------|-8---8---8--|------7-----|-----8---8---|
		|---------------------------------|------------|---------7--|-0-6-7-------|
		|--------------------------5------|-----5-7-9--|-0--5-6-----|-------8-9---|
		|-9-------------------9-------9---|-7-9--------|------------|-----------9-|
		|-----------7---------------------|------------|------------|-------------|

		|-----3---3---|-8---0--0---|-8----------|-7----------|-7---0--0---|---0--------|
		|-8-----------|------------|-----6--6---|------------|------------|-4---7--7-5-|
		|-------------|------------|------------|-----8--8---|------------|-4---4--4---|
		|-5-----------|-5-7-8--7-5-|-3-5-7--5-3-|-4-5-7--5-4-|---4-5--4---|-4----------|
		|-----5-------|------------|------------|------------|-7--------7-|---7-6--6-7-|
		|---9---7-5-3-|------------|------------|------------|------------|------------|

		|------0----|-------------------|-------------------|-7---7--7---|
		|-4--4---7--|------7-5----4-----|------5-4----------|-8---8--8---|
		|-4--4---4--|-6--8--------3--6--|-4--5--------5--4--|------------|
		|-4--4------|-8--4---6----4-----|-7------4-------7--|---4-5--4---|
		|------7-6--|-7--------------7--|-6--7--------7--6--|-7--------7-|
		|-----------|-------------------|-7-----------------|------------|

		|-7---------7---------7-----------|-7---7--7---|
		|-10--------10--------10----------|-8---8--8---|
		|---------------------------------|------------|
		|--------------------------5------|-----5------|
		|-9-------------------9-------9---|-7-9----9-7-|
		|-----------7---------------------|------------|

		|-7---------7---------7-----------|-7---7---7--|-10------8--|-7-----------|
		|-10--------10--------10----------|-8---8---8--|------7-----|-----8---8---|
		|---------------------------------|------------|---------7--|-0-6-7-------|
		|--------------------------5------|-----5-7-9--|----6-7-----|-------8-9---|
		|-9-------------------9-------9---|-7-9--------|-7----------|-----------9-|
		|-----------7---------------------|------------|------------|-------------|

		|-----3---3---|-8---0--0---|-8----------|-7----------|-7---0--0---|-----5--5---|
		|-8-----------|------------|-----6--6---|------------|------------|-7-8-5--5-8-|
		|-------------|------------|------------|-----8--8---|------------|-5-0-5--5-0-|
		|-5-----------|-5-7-8--7-5-|-3-5-7--5-3-|-4-5-7--5-4-|---4-5--4---|-7---4--4---|
		|-----5-------|------------|------------|------------|-7--------7-|------------|
		|---9---7-5-3-|------------|------------|------------|------------|------------|

		|--------5--|-----5------|-5------0--|-------------------|-2-----------------|
		|-7--7-8-5--|-7-8-5--7-8-|-5--7-8-0--|-7-----------------|-------------------|
		|-5--5-0-5--|-5-0-5--5---|-5--8---0--|---4-2-0-2---------|---4-2-0-2---------|
		|-7--7---4--|-7---4--7---|-4--7------|--------------4----|--------------4----|
		|-----------|------------|--------7--|-------------------|-2-----------------|
		|-----------|------------|----7------|-7-----------------|-------------------|

		|-2-----------------|-2-----------------|-----2--2---|-------2--|-----2------|
		|-------------------|-------------------|-4-5-0--0---|-4--4--0--|-4-5-0--4-5-|
		|---4-2-0-2---------|---4-2-0-2---------|-4----------|-4--4-----|-4------4---|
		|--------------4----|--------------4----|-4-2-1--1-2-|-4--4--1--|-4-2-1--4-2-|
		|-2-----------------|-2-----------------|-2----------|-2--------|-2----------|
		|-------------------|-------------------|------------|----------|------------|

		|-2------2--|-4-----------------|-4-----------------|-4-----------------|
		|-0--4-5-0--|---5-3-1-3----0----|---5-3-1-3----0----|---3-1-0-3----0----|
		|----4------|-------------------|-------------------|-------------------|
		|-1--4-2-1--|-------------------|-------------------|-------------------|
		|-2---------|-------------------|-------------------|-------------------|
		|-----------|-0-----------------|-0-----------------|-0-----------------|

		|-4-----------------|-5-7-8--8-7-|-5--5-7-8--|-5-7-8--5-7-|-8--5-7-8--|
		|---3-1-0-3----0----|-5-0-5--5-0-|-5--5-0-5--|-5-0-5--5-0-|-5--5-0-5--|
		|-------------------|-5----------|-5--5------|-5------5---|----5------|
		|-------------------|-----7--7---|--------7--|-----7------|-7------7--|
		|-------------------|------------|-----------|------------|-----------|
		|-0-----------------|------------|-----------|------------|-----------|

		|-7---5--3---5--------2--------|-0-----------------|
		|------------------------------|-------------------|
		|------------5-----------------|---4-2-0-2---------|
		|-5----------------------------|--------------4----|
		|------------------------------|---------3---------|
		|------------------------------|-2-----------------|

		|-7---5--3---5--------2--------|-0-----------------|--------7-8-|-7---------|
		|------------------------------|-------------------|-0---0--4---|-4--0------|
		|------------5-----------------|---4-2-0-2---------|---5----4---|-4----5-4--|
		|-5----------------------------|--------------4----|-----2------|-----------|
		|------------------------------|-------------------|-6----------|----6---6--|
		|------------------------------|-2-----------------|-7---7------|----7---7--|

		|-------------7-10-8--|-7-----------------|-7---5--3---5--------2--------|
		|-0-----------5-------|-0----0------------|------------------------------|
		|-0-7-5--4------------|-8------7----------|------------5-----------------|
		|-------------9-------|----------10--9----|------------------------------|
		|-7------6------------|------6-------6----|-9----------------------------|
		|-7------7------------|------7-------7----|------------------------------|

		|-0-----------------|-7---5--3---5--------2--------|-0-----------------|
		|-------------------|------------------------------|-------------------|
		|---4-2-0-2---------|------------5-----------------|---4-2-0-2---------|
		|--------------4----|-4----------------------------|--------------4----|
		|---------3---------|------------------------------|---------3---------|
		|-2-----------------|------------------------------|-2-----------------|

		|-------------|-------------|-7--8-8-7-7--8-|-7------------|-7---7--7---|
		|-------0-0---|-------0-0---|-10-5-5---10-5-|-10-0---------|-8---8--8---|
		|-4-5-5---2-5-|-4-5-5---2-5-|-8------8-8----|-8----5-6-7-8-|------------|
		|-7-2-2-------|-7-2-2-----2-|-9--------9----|-9--------0---|-----5------|
		|-6-----6-6-7-|-6-----6-6---|---------------|------------6-|-7-9----9-7-|
		|-7-------7---|-7-------7---|---------------|----7-8-9-----|------------|

		|-7---------7---------7-----------|-7---7--7---|
		|-10--------10--------10----------|-8---8--8---|
		|---------------------------------|------------|
		|--------------------------5------|-----5------|
		|-9-------------------9-------9---|-7-9----9-7-|
		|-----------7---------------------|------------|

		|-7---------7---------7-----------|-7---7---7--|-10------8--|-7-----------|
		|-10--------10--------10----------|-8---8---8--|------7-----|-----8---8---|
		|---------------------------------|------------|---------7--|-0-6-7-------|
		|--------------------------5------|-----5-7-9--|-0--6-7-----|-------8-9---|
		|-9-------------------9-------9---|-7-9--------|------------|-----------9-|
		|-----------7---------------------|------------|------------|-------------|

		|-----3---3---|-8---0--0---|-8----------|-7----------|-7---0--0---|---0--------|
		|-8-----------|------------|-----6--6---|------------|------------|-4---7--7-5-|
		|-------------|------------|------------|-----8--7---|------------|-4---4--4---|
		|-5-----------|-5-7-8--7-5-|-3-5-7--5-3-|-4-5-7--5-4-|---4-5--4---|-4----------|
		|-----5-------|------------|------------|------------|-7--------7-|---7-6--6-7-|
		|---9---7-5-3-|------------|------------|------------|------------|------------|

		|------0----|-------------------|-------------------|-7---7--7---|
		|-4--4---7--|------7-5----4-----|------5-4----------|-8---8--8---|
		|-4--4---4--|-6--8--------3--6--|-4--5--------5--4--|------------|
		|-4--4------|-8--4---6----4-----|-7------4-------7--|---4-5--4---|
		|------7-6--|-7--------------7--|-6--7--------7--6--|-7--------7-|
		|-----------|-------------------|-7-----------------|------------|

		|-7---------7---------7-----------|-7---7--7---|
		|-10--------10--------10----------|-8---8--8---|
		|---------------------------------|------------|
		|--------------------------5------|-----5------|
		|-9-------------------9-------9---|-7-9----9-7-|
		|-----------7---------------------|------------|

		|-7---------7---------7-----------|-7---7---7--|-10------8--|-7-----------|
		|-10--------10--------10----------|-8---8---8--|------7-----|-----8---8---|
		|---------------------------------|------------|---------7--|-0-6-7-------|
		|--------------------------5------|-----5-7-9--|-0--6-7-----|-------8-9---|
		|-9-------------------9-------9---|-7-9--------|------------|-----------9-|
		|-----------7---------------------|------------|------------|-------------|

		|-----3---3---|-8---0--0---|-8----------|-7----------|-7---0--0---|-----5--7---|
		|-8-----------|------------|-----6--6---|------------|------------|-7-8-5--5-8-|
		|-------------|------------|------------|-----8--8---|------------|-5-0-5--5-0-|
		|-5-----------|-5-7-8--7-5-|-3-5-7--5-3-|-4-5-7--5-4-|---4-5--4---|-7---4--4---|
		|-----5-------|------------|------------|------------|-7--------7-|------------|
		|---9---7-5-3-|------------|------------|------------|------------|------------|

		|--------5--|-5-7-8--8-7-|-5--5-7-8--|-------------|-5---8-7-14-12-|
		|-7--7-8-5--|-7-0-7--7-0-|-7--8-0-7--|-0-------7-5-|-0-8-5---0-----|
		|-5--5-0-5--|-5---9--9---|-5--5---9--|-0-5-5-4-4---|---------0-----|
		|-7--7---4--|-----7--7---|--------7--|-----5---5---|---------------|
		|-----------|------------|-----------|-7---7-------|---------------|
		|-----------|------------|-----------|-7---7---7---|-7---7---------|

		|-0-15-12-------0-|-7------------|-0----7-11-9----|-0-------------|
		|-0-------12------|-7-10---0-----|-9-10-0----9-12-|-9-10-12--9-10-|
		|------------12---|-8----7-------|------9----9----|------9---9----|
		|------14---------|-9------------|-9---------9----|-9----9---9----|
		|---------14-10-7-|-9--------9---|----------------|---------------|
		|-----------------|-7----------7-|-0--------------|-0-------------|

		|------7--------|----------7----7------|-0----7-11-9----|-0-------------|
		|-12-------12-0-|-12-------------------|-9-10-0----9-12-|-9-10-12--9-10-|
		|--------8------|----------------------|------9----9----|------9---9----|
		|----7-9---11---|-------7--9--------7--|-9---------9----|-9----9---9----|
		|-11------------|----11---------11-----|----------------|---------------|
		|-0-------------|-0--------------------|-0--------------|-0-------------|

		|------7--------|----------7----7------|-------9-11-16-14-|-----------------|
		|-12-------12-0-|-12-------------------|-10-12-0----0-----|-14-16-12--------|
		|--------8------|----------------------|-8-----8----------|-14--------------|
		|----7-9---11---|-------7--9--------7--|-9----------------|-13----13----13--|
		|-11------------|----11---------11-----|------------------|----------11-12--|
		|-0-------------|-0--------------------|-0----------------|-0-----14--------|

		|-------0-----14-12-|-0-----0-------|---0-2-4-5-4-|-2-------2---|
		|-------12-16-0-----|-14-16-12---5--|-4---0---0---|-0-5-4-5-0-4-|
		|-13-14-------------|-13----13------|-4-----------|-----4-------|
		|-14----------------|------------6--|-4-----2-2-2-|---2-4-2---4-|
		|-14----14----------|----------9----|---7-6-------|-6-------6---|
		|-0-----16----------|-0-----12------|-2-----------|-------------|

		|-------------------|------------|-4----7-11-9-7-|-0----7--0----|
		|-2--4-7-5----2--4--|-0-2-4--2-0-|-5-10-5----9---|-9-10-0--9-10-|
		|-3-----------3-----|-----2--2---|-4---------9---|------9-------|
		|-2--4---6----2--4--|-7-2-4--2---|------9----9---|-9-------9----|
		|-------------------|-6--------6-|---------------|--------------|
		|-2-----------------|-7----------|-0-------------|-0------------|

		|-7------7-----7-----|-7------7----7-----|-0----7-11-9-7-|-0----7--0----|
		|--------------------|-------------------|-9-10-0----9---|-9-10-0--9-10-|
		|-----------8--6-----|-------------------|------9----9---|------9-------|
		|---6-7--9--------9--|---6-7--9----6--7--|-9---------9---|-9-------9----|
		|--------------------|-------------------|---------------|--------------|
		|-0------------------|-0-----------------|-0-------------|-0------------|

		|-7------7-----7-----|-7------7----7-----|-8-10-12-15-13-12-|-8-10-8--------|
		|--------------------|-------------------|------------------|---------------|
		|-----------8--6-----|-------------------|-0----------0-----|-0--------7----|
		|---6-7--9--------9--|---6-7--9----6-----|------10----------|------10----10-|
		|--------------------|----------------7--|------------------|---------------|
		|-0------------------|-0-----------------|-6----------------|-6-------------|

		|--------8------|-8-------------------|-0----------7--0------|-7------7-0----|
		|-6-8-10---10-8-|-6--8--6-------------|---------9-----10--9--|---10-9---10-9-|
		|---------------|---------------------|-----11--9--8--6------|-8----9-8-6----|
		|-7---10---10---|---------7-10-----7--|---6-7---9---------9--|---11-9------9-|
		|-0-------------|-0-----0-------8-----|----------------------|---------------|
		|----------8----|---------------------|-7--------------------|-7-------------|

		|------7-------------|-0-----------|-------------|-0---6--11-6-|-7-9-6-7------|
		|-7--9---10----7--9--|-0-----------|-0---7--11-9-|-7-9---------|---------9-11-|
		|-8--7---8-----8-----|-------------|-8-9-8--8----|-----9--9----|-8---8---8----|
		|-7------9-----7--9--|-6-7-6-------|-----9--9----|-8-----------|--------------|
		|----8---9-----------|-7-----9-7---|-----9--9----|-----9--9----|-----9---9----|
		|-7------------------|-----------7-|-7-----------|-7-----------|-7------------|

		|-6-7-0-6-0--|-------------|-0---6--11----|-7-9-6-7------|-6-7-0-6-0--|
		|-----9---7--|-0---7--11-9-|-7-9-------10-|---------9-11-|-----9---7--|
		|-8----------|-8-9-8--8----|-----9--9-----|-8---8---8----|-8----------|
		|---------8--|-----9--9----|-8------------|--------------|---------8--|
		|-9-------9--|-----9--9----|-----9--9-----|-----9---9----|-9-------9--|
		|------------|-7-----------|-7------------|-7------------|------------|

		|-7---0--6---|-7---0--6---|-7-9-------0-|------------|-0----7-11-9-7-|
		|-0-7-9----7-|-0-7-9----7-|-0---7--10---|-9---7----0-|-9-10-0----0---|
		|-8------9---|-8------9---|---6---------|---8----6---|------9----9---|
		|-----8--8---|-----8--8---|--------7----|-6----------|-9-------------|
		|------------|------------|-----9-----7-|---6-9------|---------------|
		|-7---7--7---|-7---7--7---|-------------|--------9-7-|-0-------------|

		|-0----7--0----|-7---7---7---|-7---7--7---|-0----7-11-9-7-|-0----7--0----|
		|-9-10-0--9-10-|-------------|------------|-9-10-0----9---|-9-10-0--9-10-|
		|------9-------|-------8-6---|------------|------9----9---|------9-------|
		|-9-------9----|---7-9-----9-|-6-7-9--6-7-|-9---------9---|-9-------9----|
		|--------------|-------------|------------|---------------|--------------|
		|-0------------|-0-----------|-0----------|-0-------------|-0------------|

		|-7------7-----7-----|-7---7--7---|-8-10-12-15-13-12-|-8-10-8--------|
		|--------------------|------------|------------------|---------------|
		|-----------8--6-----|------------|-0----------0-----|-0-------7-----|
		|---6-7--9--------9--|-6-7-9--6---|------10----------|------10---10--|
		|--------------------|----------7-|------------------|---------------|
		|-0------------------|-0----------|-6----------------|-6-------------|

		|--------8------|-8------------|-0---------7--8-|-7--12-8--10-7-8--|
		|-6-8-10---10-8-|-6-8-6--------|-0-0--8-10------|-------10----8----|
		|---------------|--------------|-0-11---8--9--9-|-9--9-----7--0----|
		|-7---10---10---|-----7-10---7-|------9-------7-|-------7-------10-|
		|-0-------------|-----0----8---|---7--7-9--10---|-10-11----9-------|
		|----------8----|-8------------|-7--------------|---------------12-|

		|----7--0-0-0--0--|-7--7--7--|-7---7---7---|-7---------7---------7------------|
		|-10-0--8-9-10-11-|-8--8--7--|-8---8---8---|-10--------10--------10-----------|
		|-11--------------|-9--9--8--|-------------|----------------------------------|
		|---------0-11-10-|----------|-------------|----------------------------------|
		|-9-----7---------|----------|-7-9-10--9-7-|-9-------------------9----10--9---|
		|----11-----9--8--|-7--7--7--|-------------|-----------7----------------------|

		|-7---7---7---|-7---------7---------7------------|-7---7----7--|-10-------8--|
		|-8---8---8---|-10--------10--------10-----------|-8---8----8--|-------7-----|
		|-------------|----------------------------------|-------------|----------7--|
		|-------------|----------------------------------|--------7-9--|-0-----7-----|
		|-7-9-10--9-7-|-9-------------------9----10--9---|-7-9-10------|----11-------|
		|-------------|-----------7----------------------|-------------|-------------|

		|-7-------------|------3---3---|-8---0--0---|-8----------|-7----------|
		|------8----8---|-8------------|------------|-----6--6---|------------|
		|-0-------------|--------------|------------|------------|-----8--8---|
		|---11-12-8-9---|--------------|-5-7-8--7-5-|-3-5-7--5-3-|-4-5-7--5-4-|
		|-------------9-|-10-4-5-------|------------|------------|------------|
		|---------------|--------7-5-3-|------------|------------|------------|

		|-7---0--0---|---0--------|-------0---|-------------------|-------------------|
		|------------|-4---7--7-5-|-4--4----7-|------7-5----4-----|------5-4----------|
		|------------|-4---4--4---|-4--4----4-|-6--8--------3--6--|-4--5--------5--4--|
		|---4-5--4---|-4----------|-4--4------|-8--4---6----4-----|-7------4-------7--|
		|-7--------7-|---7-6--6-7-|-------7-6-|-7--------------7--|-6--7--------7--6--|
		|------------|------------|-----------|-------------------|-7-----------------|

		|-7---7--7---|-7---------7---------7-----------|-7---7--7---|
		|-8---8--8---|-10--------10--------10----------|-8---8--8---|
		|------------|---------------------------------|------------|
		|---4-5--4---|--------------------------5------|-----5------|
		|-7--------7-|-9-------------------9-------9---|-7-9----9---|
		|------------|-----------7---------------------|----------7-|

		|-7---------7---------7-----------|-7---7---7--|-10------8--|-7-----------|
		|-10--------10--------10----------|-8---8---8--|------7-----|-----8---8---|
		|---------------------------------|------------|---------7--|-0-6-7-------|
		|--------------------------5------|-----5-7-9--|-0--6-7-----|-------8-9---|
		|-9-------------------9-------9---|-7-9--------|------------|-----------9-|
		|-----------7---------------------|------------|------------|-------------|

		|-----3---3---|-----5--5---|--------5--|-5-7-8--8-7-|-5--5-7-8--|-------------|
		|-8-----------|-7-8-5--5-8-|-7--7-8-5--|-7-0-7--7-0-|-7--7-0-7--|-0-------7-5-|
		|-------------|-5-0-5--5-0-|-5--5-0-5--|-5---9--9---|-5--5---9--|-0-5-5-4-0---|
		|-5-----------|-7---4--4---|-7--7---4--|-----7--7---|--------7--|-----5-------|
		|-----5-------|------------|-----------|------------|-----------|-7---7---7---|
		|---9---7-5-3-|------------|-----------|------------|-----------|-7---7---7---|

		|-5---8-7-14-12-|-0-15-12------0-|----------|-7---7---7---|
		|-0-8-5---0-----|-0-------12-8---|-8-----7--|-8---8---8---|
		|---------------|------------0---|-8-----7--|-------------|
		|---------------|------14--------|-7--9--7--|-------------|
		|---------------|---------14---7-|-------9--|-7-9-10--9-7-|
		|-7---7---------|----------------|-7--------|-------------|

		|-7---------7---------7------------|-7---7---7---|
		|-10--------10--------10-----------|-8---8---8---|
		|----------------------------------|-------------|
		|----------------------------------|-------------|
		|-9-------------------9----10--9---|-7-9-10--9-7-|
		|-----------7----------------------|-------------|

		|-7---------7---------7------------|-0--------0--------0-----------|
		|-10--------10--------10-----------|-0--------0--------0-----------|
		|----------------------------------|-0--------0--------0-----------|
		|----------------------------------|-------------------------------|
		|-9-------------------9----10--9---|-7-----------------------------|
		|-----------7----------------------|-------------------8---10--8---|

		|-0--------0--------0-----------|-0--------0--------0-----------|
		|-0--------0--------0-----------|-0--------0--------0-----------|
		|-0--------0--------0-----------|-0--------0--------0-----------|
		|-------------------------------|-------------------------------|
		|-------------------9---10--9---|-7-----------------------------|
		|-7-----------------------------|-------------------8---10--8---|

		|-0--------0--------0----------|-0------|-0------|--------|--------|--------|
		|-0--------0--------0----------|-0------|-0------|-4------|-4------|-4------|
		|-0--------0--------0----------|-0------|-0------|-0------|--------|--------|
		|------------------------------|--------|--------|--------|-4------|-5------|
		|------------------------------|--------|-3------|-2------|-3------|--------|
		|-7-----------------2---3--2---|-0------|--------|--------|--------|-3------|

		|--------|--------|--------|-----------0-|-4-7-12-16-0-0-|-12------|-------||
		|--------|-4------|--------|---------0---|---------------|-0-------|-------||
		|--------|--------|--------|-------1-----|---------------|-12------|-------||
		|-----4--|-5------|-4------|-----2-------|---------------|-14------|-------||
		|--------|-2------|--------|---2---------|---------------|-10------|-------||
		|--------|--------|--------|-0-----------|---------------|-0-------|-------||




У этой песни отсутствуют табулатуры. Вы можете добавить табулатуры сами


Запросов к БД: 6
Генерация без шаблонов: 0.0042638778686523