В начало / Каталог / Русский, C / Celine Dion / Неизвестный альбом / My heart will go on /


Текст песни

Количество правок текста: 1 Редактировать текст

		My heart will go on

intro:		[  distortion/rever
		ЪД|-12-14-16~~-16p14p12-16-14--12------------|
		і1|-------------------------------16-14~-12~-|
		і |------------------------------------------|
		і |------------------------------------------|
		і |------------------------------------------|
		і |------------------------------------------|
		і arpegio <Cm#           H            A   H(*)>
		і |-------4-------------2------------5---7---|
		і2|-------5-------------4------------5---7---|
		і |-------6-------------4------------6---8---|
		і |-------6-------------4------------7---9---|
		і |-------4-------------2------------7---9---|
		АД|----------------------------------5---7---|

		ЪД|-12-14-16~~-16p14p12-16-14-16-19-21~~-19-14-|
		і1|--------------------------------------------|
		і |--------------------------------------------|
		і |--------------------------------------------|
		і |--------------------------------------------|
		і |--------------------------------------------|
		і         <Cm#           H           A       H>
		і |--------------------------------------------|
		і2|--------------------------------------------|
		і |--------------------------------------------|
		і |--------------------------------------------|
		і |--------------------------------------------|
		АД|--------------------------------------------|]!!

Verse(Voice melody):
		[ |----------------------------|-----------------|
		1|--5-55-5-4-5--5-4-5--5-9~-7-|-5-55-5-4-5-5-0-|
		 |----------------------------|-----------------|
		 |----------------------------|-----------------|
		 |----------------------------|-----------------|
		 |----------------------------|-----------------|]!!

		 Cm#            H           A             H
		Every night in my dreams, I see you, I feel you,
		That is how I know you go on.
		Far across the distance, and spaces between us
		You have come to show you go on.

!		Chorus
		  Near,far...
		[ |----------------------|----------------------|
		1|----------12--10-9----|-9-10-9---------------|
		 |-9--11-------------11-|--------11-9-8-9--9---|
		 |--------9-------------|--------------------9~|
		 |----------------------|----------------------|
		 |----------------------|----------------------|
		  Once more...
		 |----------------------|-----------------------------------|
		 |----------12--10-9----|-9-10-9----------------------------|
		 |-9--11-------------11-|--------11-9-8-9~-9-8-9~-9/13-11-9-|
		 |--------9-------------|-----------------------------------|
		 |----------------------|-----------------------------------|
		 |----------------------|-----------------------------------|]!!

		E     H        A         H
		Near, far, wherever you are,
		  Cm#              H           A H
		I believe that the heart does go on.
		E    H         A        H
		Once more, you open the door
		           Cm#        H
		And you're here in my heart,
		    A               Cm#  H   E
		And my heart will go on and on.

		Love can touch us one time and last for a lifetime,
		And never let go till we're gone.
		Love was when I loved you, one true time I hold to
		In my life we'll always go on.

		Near, far, wherever you are,
		I believe that the heart does go on.
		Once more, you open the door
		And you're here in my heart,
		And my heart will go on and on.

		You're here, there's nothing I fear
		And I know that my heart will go on.
		We'll stay forever this way,
		You are safe in my heart,
		And my heart will go on and on.

-

		  C            G            F         G
		Every night in my dreams I see you, I feel you,
		That is how I know you go on
		Far across the distance and spaces between us
		You have come to show you go on

		  C    G      F          G
chours:		Near, far, wherever you are
		    Am             G            F
		I believe that the heart does go on
		Once more, you open the door
		And you're here in my heart
		And my heart will go on and on

		Love can touch us one time and last far a lifetime
		And never let go till we're gone.
		Love was when I loved you, one true time I hold to
		In my life we'll always go on

!		chours

		You here, there' nothing to fear
		And I know that my heart will go on.
		We'll stay forever this way
		You are safe in my heart
		And my heart will go on and on

-

		TITANIC

		  C       G       F       G          C       G       F
		[-|------------------------0--1p0----|------------------------------|-
		-|1--11-1-0-1---1-0-1---3--0----3---|1--11-1-0-1---1---------------|-
		-|--0----0-0-0-0-0---2-2-2--0----0-0|--0----0-0-0-0-0---2------2---|-
		-|-2---2------0----3--3-----------0-|-2---2------0---3-3-3-33-3-3-3|- } X 2
		-|3---3-----------3-----------------|3---3-----------33---3-33---3-|-
		-|--------3---------------3-----3---|--------3---------------------|-

Chorus:		<  Am       G       F        G        Am      G       F       G>
		-|-----------------3--1--0h1----0-1-|0-------------------------------|-
		-|1--1--0h13--3--3--1--1----3-------|---13-1-0-1---0----1---10--3--0-|-
		-|--2-2------0-0--0--2--2------0-0-0|--2--2-2-0-0-0-02-2-2-2---0-0--0|-
		-|-2---2----0---0--3----------0-----|-2----------0----3---3---0---0--|-
		-|0--------------------------2------|0---------------3---------------|-
		-|---------3----------------3-------|--------3---------------3-------|-

		  Am       G       F        G        Am      G       F       G
		-|-----------------3--1--0h1----0-1-|0-----------------------0--1p0---|-
		-|1--1--0h13--3--3--1--1----3-------|---13-1-0-1---0-0-1---3---0---3--|-
		-|--2-2------0-0--0--2--2------0-0-0|--2--2-2-0-0-0-0---2-2-2-0-----0-|-
		-|-2---2----0---0--3----------0-----|-2----------0----3--3-----------0|-
		-|0--------------------------2------|0---------------3----------------|-
		-|---------3----------------3-------|--------3---------------3--------|-

Bridge:		<  C>
		-|----------
		-|11--1--1--
		-|---0-0--0-
		-|--2---2---
		-|-3--------
		-|----------]


Аккорды, используемые в подборе:
Схема аккорда Cm Схема аккорда H Схема аккорда A Схема аккорда E
Схема аккорда C Схема аккорда G Схема аккорда F Схема аккорда Am



У этой песни отсутствуют табулатуры. Вы можете добавить табулатуры сами


Запросов к БД: 6
Генерация без шаблонов: 0.0021510124206543