В начало / Каталог / Русский, D / ДДТ / Неизвестный альбом / Метель (табы) /


Текст песни

Количество правок текста: 1 Редактировать текст

		[E||--------0-------------------------------------2--------|
		B||--------0------------1--------------------------3------|
		G||-----------0------------0-------------------2-----2----|
		D||-----2-------0----2-----------0----------0----------0--|
		A||---------------3-------------------0-2-3---------------|
		E||--0------------------------3-----3---------------------|



		E||--------0------------0-------------3----------2--------|
		B||--------0---------------1------------3------3---3------|
		G||-----------0---------------3h-4--0-------2--------2----|
		D||-----2-------0----2--------4h-5--------0------------0--|
		A||---------------3---------------------------------------|
		E||--0----------------------------------------------------|]!!





У этой песни отсутствуют табулатуры. Вы можете добавить табулатуры сами


Запросов к БД: 6
Генерация без шаблонов: 0.0024240016937256