В начало / Каталог / Русский, D / ДДТ / Неизвестный альбом / В последнюю осень /


Текст песни

Количество правок текста: 1 Редактировать текст

		В последнюю осень

Вступление:	2) ---0-1--------------------------
		3) -2-----2----0-2--------2--1-2-4-
		4) ----------3-----3--0-2----------

		2) ---0-1---------------0-1--0-1-3-
		3) -2-----2----0-2----2------------
		4) ----------3-----3---------------

		2) ---0-1--------------------------
		3) -2-----2----0-2--------2--1-2-4-
		4) ----------3-----3--0-2----------

		1) ---------------------------------0-1-3--4-5-7-
		2) ---0-1---------------0-1--0-1-3---------------
		3) -2-----2----0-2----2--------------------------
		4) ----------3-----3-----------------------------

		     D      Em         C           G
(1)		В последнюю осень ни стpочки, ни вздоха.
		     D    Em     C        G
		Последние песни осыпались летом.
		   H7          Em      C     G
		Пpощальным костpом догоpает эпоха,
		  H7      Em      C        G
		И мы наблюдаем за тенью и светом

		  H7        Em    C G
Припев:		В последнюю осень     } 2 раза

(2)		Голодная бypя шyтя pазметала
		Все то, что дyшило нас пыльною ночью.
		Все то, что давило, игpало, меpцало
		Осиновым ветpом pазоpвано в клочья

!		Припев

(3)		Ах, Александp Сеpгеевич, милый,
		Hy что же Вы нам ничего не сказали
		О том, как дышали, искали, любили,
		О том, что в последнюю осень Вы знали

!		Припев

		  H7     Em     C       G
(4)		Голодное моpе шипя поглотило
		Осеннее солнце, и за облаками
		Вы больше не вспомните то, что здесь было
		И пыльной тpавы не коснётесь pyками.
		Уходят в последнюю осень поэты
		И их не веpнyть - заколочены ставни.
		Остались дожди и замёpзшее лето,
		Осталась любовь и ожившие камни

!		Припев

-

		          Am           F           C
(1)		Последнюю осень, ни строчки, ни вздоха
		    Е      Am     F        C
		Последние песни осыпались летом...
		                Am      F     C
		Прощальным костром догорает эпоха
		   Е       Am      F        C
		И мы наблюдаем за тенью и светом

		    E     Am    G  C
Припев:		Последняя осень
		    E     Am
		Последняя осень

(2)		Осенняя буря шутя разметала
		Все то что душило нас пыльною ночью
		Все то что дарило играло мерцало
		Осиновым ветром разорвано в клочья

!		Припев

(3)		Ах, Александр Сергеевич, милый
		Ну что же вы нам ничего не сказали
		О том как держали искали любили
		О том что в последнюю осень вы знали

!		Припев

(4)		Голодное море шипя проглатило
		Осеннее солнце и за облаками
		Вы больше не вспомните то что здесь было
		И пыльной травы не коснетесь руками

(5)		Уходят в последнюю осень поэты
		И их не вернуть-заколочены ставни
		Остались дожди и замерзшее лето
		Осталась любовь и ожившие камни.

!		Припев

-

		  G7    Am7          F          C
(1)		Последняя осень, ни строчки ни вздоха.
		    G      Am     F        C
		Последние песни осыпались летом.
		    G7          Am      F     C
		Прощальным костром догорает эпоха,
		   E7      Am      F        C
		И мы наблюдаем за тенью и светом

		      E7    Am      F  C
Припев:		В последнюю осень.
		      E7    Am
		В последнюю осень.

(2)		Осенняя осень шутя разметала
		Все то что душило пас пыльною ночью
		Все то что играло, давило, мерцало
		Осиновым ветром разорванно в клочья

!		Припев

(3)		Ах, Александр Сеергеевич милый,
		Ну что же Вы нам ничего не сказали,
		О том, что искали, держали, любили.
		О том, что в последнюю осень вы знали

!		Припев

(4)		Голодное море шипя поглгтило
		Осеннее солнце и за облаками
		Вы больше не вспомните то что здесь было
		И пыльной травы не коснетесь руками

(5)		Уходят в последнюю осень поэты
		И их не вернуть, заколочены ставни.
		Остались дожди и замерзшее лето.
		Осталась любовь, и ожившие камни.
		Последняя осень.

!		Припев

-

!		В последнюю осень (соло)

!		Играется на первых трёх струннах.

		[E-0-2-3-0-----|-----0-------|-------3-----|----0--2-----|
		B-------------|-1-3---3-----|-----0-------|--3----------|
		G-------------|-------------|---2---------|-------------|
		D-------------|-------------|-------------|-------------|
		A-------------|-------------|-------------|-------------|
		E-------------|-------------|-------------|-------------|

		E-0-2-3-0-----|-2-3-5--2----|--7-8-10-----|-11-12--14------|
		B-------------|-------------|-------------|----------------|
		G-------------|-------------|-------------|----------------|
		D-------------|-------------|-------------|----------------|
		A-------------|-------------|-------------|----------------|
		E-------------|-------------|-------------|----------------|]!!


Аккорды, используемые в подборе:
Схема аккорда D Схема аккорда Em Схема аккорда C Схема аккорда G
Схема аккорда H7 Схема аккорда Am Схема аккорда F Схема аккорда E
Схема аккорда G7 Схема аккорда Am7 Схема аккорда E7


У этой песни отсутствуют табулатуры. Вы можете добавить табулатуры сами


Запросов к БД: 6
Генерация без шаблонов: 0.0032069683074951