В начало / Каталог / Русский, D / Децл / Неизвестный альбом / Слезы /


Текст песни

Количество правок текста: 2 Редактировать текст

		Слезы

		1---------------------------------------
		2---------------------------------------
		3---------------------3-3---------------
		4--------5------------------------------
		5----------------3----------------------
		6-3-6--3-------5---5--------------------

		1---------------------------------------
		2---------------------------------------
		3---------------------3s4--3------------
		4--------5------------------------------
		5----------------3----------------------
		6-3-6--3-------5---5--------------------

		Em          D          G
		    Мои слезы, моя печаль
		Em          D             G
		    Мои грезы, мой тихий райяй

!		Речетатив читается под <Em> - <D>


Аккорды, используемые в подборе:
Схема аккорда Em Схема аккорда D Схема аккорда G


У этой песни отсутствуют табулатуры. Вы можете добавить табулатуры сами


Запросов к БД: 6
Генерация без шаблонов: 0.0020520687103271