В начало / Каталог / Русский, G / Guns'n'Roses / Неизвестный альбом / Don't Cry /


Текст песни

Количество правок текста: 1 Редактировать текст

		Don't Cry
		Use Your Illusion I & II

Intro:		|<Am  Dm  G  G/B>  (<C>) |
		Talk to me softly there's something in your eyes
		Don't hang your head in sorrow and please don't cry
		I know how you feel inside I've I've been there before
		Somthin' chengin' inside you and don't you know

Chorus:		<F>Don't you cry toni<Am>gh
		I still love you baby
		<F>Don't you cry toni<Am>ght
		<F>Don't you cry toni<Am>ght
		There's a hea<C>ven above you baby
		<F>And Don't you <G>cry       toni<Am>ght
		Give me a whisper and give me a sigh
		Give me a kiss befiore you tell me goodbye
		Don't you take it so hard now
		And please don't take it so bad
		I'll still be thinking of you
		And the times we had baby

		|<C5  G/B  A5  G5  F5  G5  A5>|

!		solo

!		TAB:
!		Intro: Clean Electric
		Am            Dm            G
		[E|-----|--------0-------------1---------------3-----------------------|
		B|-----|----------1---------3---3---------------3---------------------|
		G|-----|------2-----2-----2-------2---------0-----0-------0-----0-----|
		D|-----|----2---------0-0-----------------0-------------0-----0-------|
		A|-----|--0-------------------------0---2-----------0-3-----2-----3-2-|
		E|--3--|------------------------------3-------------------------------|

		Am            Dm            G
		E|-------0-------------1--------------------------|
		B|---------1---------3---3------------------------|
		G|-----2-----2-----2-------2---------0------------|
		D|---2---------0-0-----------------0-----------2--|
		A|-0-------------------------0---2-------------0--|
		E|-----------------------------3---------2-3-4----|]

!		Verse: Clean Electric
!		Rhy. Fig. 1                                     End Rhy. Fig. 1
		Am            Dm            G             *
		[E|-------0-------------1---------------3-----------------------|
		B|---------1---------3---3---------------3---------------------|
		G|-----2-----2-----2-------2---------0-----0-------0-----0-----|
		D|---2---------0-0-----------------0-------------0-----0-------|
		A|-0-------------------------0---2-----------0-3-----2-----3-2-|
		E|-----------------------------3-------------------------------|]!!

!		* Last time before 2nd and 3rd chorus replace remainder of Rhy. Fig. 1 with
!		Rhy. Fill 1.

!		Rhy. Fill 1          End Rhy. Fill 1
		C       G/B     Am      G
		[E|----------------------------------|
		B|-------1-------3-------1----------|
		G|-----0-------0-------2---------0--|
		D|---2-------0-------2---------0----|
		A|-3-------2-------0---------2------|
		E|-------------------------3--------|]!!

!		(w/Rhy. Fig. 1)
		Talk to me softly
		There's something in your eyes
		Don't hang your head in sorrow
		And please don't cry
		I know how you feel inside I've
		I've been there before
		Somethin's changin' inside you
		And Don't you know

!		Chorus: Clean Electric
		F                    G           Am
		[E|--------------------------------|------------------0--|--------------------|
		B|--1-------1-----1----------3-3--|--------0-h-1--------|--1-----0-h-1-------|
		G|--0-h-2---0-h-2-0-h-2------0-0--|------2-------2------|----2---------2-p-0-|
		D|--3-------3-----3--------0------|----2-----------2----|------2-------------|
		A|--------------------------------|--0------------------|--------------------|
		E|-----------------------3--------|---------------------|--------------------|

		F           G           Am                            F           G
		E|--------1-------------|------------0--0-------------|------1-----------3---|
		B|------1---1-------3---|------0----------3--3-1------|----1---1-----3-3---3-|
		G|----2-------2---0-----|----2-----2-------------2----|--2-------2---0-------|
		D|--3-----------0-----0-|--------2-----------------2--|--3-----------0-------|
		A|----------------------|--0--------------------------|----------------------|
		E|----------------------|-----------------------------|----------------------|

		C**     G/B     Am      G           F        G           Am
		E|-----------------------------------|------1--------3----|--0-------|
		B|--------1-------1-------1----------|----1---1--3-3---3--|--1-------|
		G|------0-------0-------2---------0--|--2--------0--------|--2----2--|
		D|----2-------0-------2---------0----|--3--------0--------|--2--2----|
		A|--3-------2-------0---------2------|--------------------|--0-------|
		E|--------------------------3--------|--------------------|----------|]

!		Repeat Verse w/Additional Lyrics: Verse: 2
!		Repeat Chorus w/Rhy. Fill 2 at **

!		Rhy. Fill 2                  End Rhy. Fill 2
		C5   G5      A5   G5      F5   G5   A5
		[E|-----------|------------|-----------------|
		B|-----------|------------|-----------------|
		G|--5--------|------------|-----------------|
		D|--5----5---|---7----5---|---3----5----7---|
		A|--3----5---|---7----5---|---3----5----7---|
		E|-------3---|---5----3---|---1----3----5---|]!!

!		Chord progression over the solo:
		D5      F5      | G5      A5G5    | F5      G5      | A5            G5|
		/. /. /. /. | /. /. /. /. | /. /. /. /. | /. /. /. /. |

		F5      G5      | E5      F5      | F5      G5      | A5
		/. /. /. /. | /. /. /. /. | /. /. /. /. | /............... |

!		Solo:
		[E|---------------------------------------------------------------------|
		B|---------------------------------------8~~-----------8-8-------------|
		G|------------7^rp5--7-(7)~~~--r7p5--7^-------r7p5--7^-----r7----5^/-|
		D|-7~~~~~~~~~----------------------------------------------------------|
		A|---------------------------------------------------------------------|
		E|---------------------------------------------------------------------|

		E|---------------------------------------------------------------------|
		B|-----------------------------------------13^(2 steps)--13^(1/4 step)-|
		G|-7/9-9/10--------------------------12h14-----------------------------|
		D|----------------------10h12-12/14------------------------------------|
		A|-5/7--7/8--8h10-10/12------------------------------------------------|
		E|---------------------------------------------------------------------|

		E|-------------------------------------------------------------------|
		B|-------------------------------------------------------------------|
		G|-14~~~--12---------------------------------------------------------|
		D|-----------14-13h14p13p12-13p12-10-12p10---------10^---------------|
		A|------------------------------------------12p10------12p10-12-(12)-|
		E|-------------------------------------------------------------------|

		E|-----15-15-15-------------15-15------------------------------------------|
		B|-15^----------r15p13--15^-------r15--13-12---------12/15-13-12-13--------|
		G|------------------------------------------------13-----------------14----|
		D|---------------------------------------------14-----------------------15-|
		A|-------------------------------------------------------------------------|
		E|-------------------------------------------------------------------------|

		E|-13-----------------------------5----------------------------------------------|
		B|----13--15^--15~~~--r15p13--8^-----8-5--------x-x--8---------------5^r^(5)r--5-|
		G|----------------------------------------r7p5--x-x--7^--(7)-----r7--------------|
		D|-------------------------------------------------------------------------------|
		A|-------------------------------------------------------------------------------|
		E|-------------------------------------------------------------------------------|]!!

!		Verse:
!		trem. bar
!		Feedback---------------------------------------|  Harm
!		\\3. 5   8va
		[E|---------------------------------|---------------------------------|
		B|---------5-b-6---------r-5-b-6---|-------r-5-----------5-----------|
		G|-(7)-----------------------------|---------------------------------|
		D|---------------------------------|---------------------------------|
		A|---------------------------------|---------------------------------|
		E|---------------------------------|---------------------------------|]!!
!		and please remem-ber             that  I never  lied

!		Chorus 3: Lead Part

!		Double regular chorus with power chords, or 5 (ie: <F5, G5, A5, etc>)

		F G Am                                                  F    G
		[E|--12~~~--12--12--12--12-------|-------------------|------------|
		B|-------------------------13---|--15-p-13----------|------------|
		G|------------------------------|-----------14~~~~--|------------|
		D|------------------------------|-------------------|------------|
		A|------------------------------|-------------------|------------|
		E|------------------------------|-------------------|------------|

		Am                                    F      G
		E|--15b-------r15--15----------|-------------------|-------------|
		B|---------------------17--15--|--15--p--13~~~~~~--|--15--13--15-|
		G|-----------------------------|-------------------|-------------|
		D|-----------------------------|-------------------|-------------|
		A|-----------------------------|-------------------|-------------|
		E|-----------------------------|-------------------|-------------|

		C     G/B    Am     G          F
		E|------------------------------|------------------------------|
		B|--15----15-----12-----12------|------------------------------|
		G|------------------------------|--14~~~~~~--------------------|
		D|------------------------------|------------------------------|
		A|------------------------------|------------------------------|
		E|------------------------------|------------------------------|]

!		Outro Chorus: Distorted Guitar

		F5            G5
		And don't you cry...
		F5             G5
		Don't you ever cry...
		F5        G5    ***     (E5) (F5)
		Don't you cry tonight... baby maybe someday...
		F5        G5
		Don't you cry...
		F5             G5
		Don't you ever cry...
		F5        G5     C5
		Don't you cry... TONIGHT... ****

-

Text:		Talk to me softly
		There's something in your eyes
		Don't hang your head in sorrow
		And please don't cry
		I know how you feel inside I've
		I've been there before
		Somethin's changin' inside you
		And don't you know

		Don't you cry tonight
		I still love you baby
		Don't you cry tonight
		Don't you cry tonight
		There's a heaven above you baby
		And don't you cry tonight

		Give me a whisper
		And give me a sigh
		Give me a kiss before you
		tell me goodbye
		Don't you take it so hard now
		And please don't take it so bad
		I'll still be thinkin' of you
		And the times we had... baby

		And don't you cry tonight
		Don't you cry tonight
		Don't you cry tonight
		There's a heaven above you baby
		And don't you cry tonight

		And please remember that I never lied
		And please remember
		how I felt inside now honey
		You gotta make it your own way
		But you'll be alright now sugar
		You'll feel better tomorrow
		Come the morning light now baby

		And don't you cry tonight
		An don't you cry tonight
		An don't you cry tonight
		There's a heaven above you baby
		And don't you cry
		Don't you ever cry
		Don't you cry tonight
		Baby maybe someday
		Don't you cry
		Don't you ever cry
		Don't you cry
		Tonight

-

Перевод:	Не Плачь

		Так скажи мне,
		Что в твоих глазах.
		Не вешай нос, хоть и грустно,
		Прошу, не плачь.
		Знаю я, каково быть может,
		Похоже было мне,
		Что-то внутри происходить,
		Но не понять тебе.

		Так не плачь сейчас,
		Я люблю тебя, baby
		Так не плачь сейчас.
		Так не плачь сейчас,
		Небеса над тобою, baby
		И не плачь сейчас.

		Ты прошепчи мне
		И вздох услышу я.
		Ты поцелуй меня крепко
		И скажи мне "прощай".
		И сделать это так трудно
		Но и не сделать нельзя.
		Я о тебе буду думать,
		Всегда-всегда... baby

		Так не плачь сейчас,
		Так не плачь сейчас,
		Так не плачь сейчас,
		Небеса над тобою, baby
		И не плачь сейчас.

		И ты запомни, я никогда не лгал,
		И ты запомни,
		Я себя также чувствовал.
		Ты сделаешь это по-своему,
		Будет всё хорошо, sugar
		Почувствуешь завтра ты лучше,
		Когда солнце взойдет, baby

		Так не плачь сейчас,
		Так не плачь сейчас,
		Так не плачь сейчас,
		Небеса над тобою, baby
		И не плачь сейчас,
		Никогда не плачь,
		И не плачь сейчас,
		Иногда, быть может,
		Но не плачь,
		Никогда не плачь,
		И не плачь
		Сейчас...


Аккорды, используемые в подборе:
Схема аккорда Am Схема аккорда Dm Схема аккорда G Схема аккорда C
Схема аккорда B Схема аккорда F Схема аккорда C5 Схема аккорда G5
Схема аккорда A5 Схема аккорда F5 Схема аккорда D5 Схема аккорда E5



У этой песни отсутствуют табулатуры. Вы можете добавить табулатуры сами


Запросов к БД: 6
Генерация без шаблонов: 0.011693000793457