В начало / Каталог / Русский, K / Кино / Неизвестный альбом / Звезда по имени Солнце (2) /


Текст песни

Количество правок текста: 1 Редактировать текст

!		Все партии для одной гитары, так исполнял Цой, когда играл один 
!		(без Каспаряна, или кого-то ещё).

!	Вступление:
	|---------------|-8-------------|-8-------------|-8-------------|-8---|
	|-----6---5---6-|-----6---5---6-|-----6---5---6-|-----6---5---6-|-----|
	|---------------|---------------|---------------|---------------|-----|
	|-7-------------|---------------|---------------|---------------|-----|
	|---------------|---------------|---------------|---------------|-----|
	|---------------|---------------|---------------|---------------|-----|.

!		1.Обязатеьно надо сыграть первую ноту, т. к. на студийной 
!		записи её нет, но 
!		на аккустических концертах Цой всегда играл именно так, чтобы
!		выделять самый высокий звук (нота "С" на 8 аду 1 струны).
!		2.Цой всегда играл на закрытых, т. е. на баррэшных аккордах. 
!		Значит аппликатура здесь будет такая:

		Am C  Dm G
		|-5--3--5--3|
		|-5--5--6--3|
		|-5--5--7--4|
		|-7--5--7--5|
		|-7--3--5--5|
		|-5--3--5--3|

		Am
		|       |       |       |  Белый|
		Am
		|снег, серый |лед, На рас-|
		C
		|трескавшейся зем|ле. Оде-|
		Dm
		|ялом лоскутным на |ней -|
		G
		|Город в дорожной пет|ле. А над |
		Am
		|городом плывут обла|ка, Закры-|
		C
		|вая небесный |свет. А над |
		Dm
		|городом - желтый |дым, |
		G
		|Городу две тысячи |лет, |
		Dm
		|Прожитых под светом Звез|ды По имени |
		Am
		|Солнце... |     |


!		Проигрыш:
		F6/A, D7sus2/A, F6/A, F6/A, играется боем [вниз|вверх|вниз|вверх]!!
		|-5---5---5---8-|-5---5---5---8-|-5---5---5---8-|-5---5---5---8-|-5---5-|
		|-6---5---6---6-|-6---5---6---6-|-6---5---6---6-|-6---5---6---6-|-6---5-|
		|-5---5---5---5-|-5---5---5---5-|-5---5---5---5-|-5---5---5---5-|-5---5-|
		|-7---7---7---7-|-7---7---7---7-|-7---7---7---7-|-7---7---7---7-|-7---7-|
		|-5---5---5---5-|-5---5---5---5-|-5---5---5---5-|-5---5---5---5-|-5---5-|
		|-5---5---5---5-|-5---5---5---5-|-5---5---5---5-|-5---5---5---5-|-5---5-|
		|              |               |               |               | И две |
		Am
		|тысячи лет - вой|на, Вой--|
		C
		|на без особых при|чин. Вой|
		Dm
		|на - дело моло|дых, Ле-|
		G
		|карство против мор|щин. |
		Am
		|Красная, красная |кровь - Через |
		C
		|час уже просто зем|ля, Через |
		Dm
		|два на ней цветы и тра|ва, Через |
		G
		|три она снова жи|ва И сог-|
		Dm
		|рета лучами Звез|ды По имени |
		Am
		|Солнце... |     |

!		[проигрыш]!!

		|       |       |       |       | И мы |
		Am
		|знаем, что так было всег|да, Что Судь-|
		C
		|бою больше лю|бим, Кто жи-|
		Dm
		|вет по законам дру|гим И ко-|
		G
		|му умирать моло|дым. Он не |
		Am
		|помнит слово "да" и слово |"нет", Он не|
		C
		|помнит ни чинов, ни и|мен. И спо-|
		Dm
		|собен дотянуться до |звезд, Не счи-|
		G
		|тая, что это |сон, И у-|
		Dm
		|пасть, опаленным Звез|дой По имени |
		Am
		|Солнце... |     |

!		[проигрыш]!!

		|       |       |       |       |
!		<Am>, таким же боем, как и проигрыш.
		|       |       |
!		[проигрыш]!!
		|       |       |       |       |.

! Если играть песню обычными аккордами, а не баррэшными, то вступление будет такое 
! (транспортированно немного неверно, но так надо):
 |-----1---0---1-|-5---1---0---1-|-5---1---0---1-|-5---1---0---1-|-5-------------|
 |---------------|---------------|---------------|---------------|---------------|
 |-2-------------|---------------|---------------|---------------|---------------|
 |---------------|---------------|---------------|---------------|---------------|
 |---------------|---------------|---------------|---------------|---------------|
 |---------------|---------------|---------------|---------------|---------------|,
! а проигрыш такой:
 |-1---0---1---5-|-1---0---1---5---|-1---0---1---5-|-1---0---1---5-|-1---0-|
 |-1---1---1---3-|-1---1---1---3---|-1---1---1---3-|-1---1---1---3-|-1---1-|
 |-2---2---2---5-|-2---2---2---5---|-2---2---2---5-|-2---2---2---5-|-2---2-|
 |-0---0---0---3-|-0---0---0---3---|-0---0---0---3-|-0---0---0---3-|-0---0-|
 |-0---0---0---0-|-0---0---0-------|-0---0---0---0-|-0---0---0-----|-0---0-|
 |---------------|-----------------|---------------|---------------|-------|.


Аккорды, используемые в подборе:
Схема аккорда Am Схема аккорда C Схема аккорда Dm Схема аккорда G
Схема аккорда F6 Схема аккорда A Схема аккорда , Схема аккорда D7sus2



У этой песни отсутствуют табулатуры. Вы можете добавить табулатуры сами


Запросов к БД: 6
Генерация без шаблонов: 0.0024211406707764