В начало / Каталог / Русский, L / Linkin Park / Неизвестный альбом / Numb /


Текст песни

Количество правок текста: 1 Редактировать текст

		Numb

		    Gm Dm# Am# Fm
		1) --3--6--6---8------
		2) --3--6--6---8------
		3) --3--8--6---10-----
		4) --5--8--8---10-----
		5) --5--6--8---8------
		6) --3--6--6---8------

!		1 - Pre-chorus:
		    Dm# Fm# Gm Am#  Dm# Fm#
		1) --6--8---3--6-----6---8--
		2) --6--8---3--6-----6---8--
		3) --8--10--3--6-----6---8--
		4) --8--10--5--8-----8---10-
		5) --6--8---5--8-----8---10-
		6) --6--8---3--6-----6---8--

!		2- Pre-chorus:
		    Dm# Fm# Gm Am#   } 2 раза
		1) --6--8---3---6---
		2) --6--8---3---6---
		3) --8--10--3---6---
		4) --8--10--5---8---
		5) --6--8---5---8---
		6) --6--8---3---6---

!		после 2ого припева:
		    Dm# Fm# Gm Am Am# Cm    Dm# Fm# D
		1) -6---8---3--5--6---8-----6---8---10----
		2) -6---8---3--5--6---8-----6---8---10----
		3) -8---10--3--5--6---8-----8---10--10----
		4) -8---10--5--7--8---10----8---10--12----
		5) -6---8 --5--7--8---10----6---8---12----
		6) -6---8---3--5--6---8-----6---8---10----

		 F#5                         A5
		I'm tired of being what you want me to be
		  H5                  E5                     F#5
		Feeling so faithless lost under the surface
		Don't know what you're expecting of me
		Put under the pressure of walking in your shoes
		(Caught in the undertow just caught in the undertow)
		Every step I take is another mistake to you
		(Caught in the undertow just caught in the undertow)

		 H5            A5                     E5
Chorus:		I've become so numb I can't feel you there
		                F#5                 H5
		I've become so tired so much more aware
		I've becoming this all I want to do
		Is be more like me and be less like you

		Can't you see that you're smothering me
		Holding too tightly afraid to lose control
		Cause everything that you thought I would be
		Has fallen apart right in front of you
		(Caught in the undertow just caught in the undertow)
		Every step that I take is another mistake to you
		(Caught in the undertow just caught in the undertow)
		And every second I waste is more than I can take

Chorus:		I've become so numb I can't feel you there
		I've become so tired so much more aware
		I've becoming this all I want to do
		Is be more like me and be less like you

		And I know
		I may end up failing too
		But I know
		You were just like me with someone disappointed in you

Chorus:		I've become so numb I can't feel you there
		I've become so tired so much more aware
		I've becoming this all I want to do
		Is be more like me and be less like you

Chorus:		I've become so numb I can't feel you there
		Is everything what you want me to be
		I've become so numb I can't feel you there
		Is everything what you want me to be


Аккорды, используемые в подборе:
Схема аккорда Gm Схема аккорда Dm Схема аккорда Am Схема аккорда Fm
Схема аккорда Cm Схема аккорда D Схема аккорда F#5 Схема аккорда A5
Схема аккорда H5 Схема аккорда E5


У этой песни отсутствуют табулатуры. Вы можете добавить табулатуры сами


Запросов к БД: 6
Генерация без шаблонов: 0.012032032012939