В начало / Каталог / Русский, L / Люмен / Неизвестный альбом / Сид и Нэнси /


Текст песни

Количество правок текста: 3 Редактировать текст
		Вены дорог, дороги вен
		            D           D#       Em
		Машинкой размажет по кирпичности стен,
		          D                  C
		Обломки империи, элементы систем,
		               D          D#       Em
		И тот, кто был всем - тот станет никем.

		          D         C
		Но мы с тобою будем вместе
		          D      D#    Em
		Как Сид и Нэнси, Сид и Нэнси.
		        D                 C
		И ни за что не доживем до пенсии,
		          D      D#
		Как Сид и Нэнси, Сид и...

Проигрыш:
		Em | D | C | D D#    } x4

		Дорожки пыли, пыль дорожек,
		Белый - смелый, хитрый - тоже,
		Покатились глаза по бледной коже,
		У меня есть ножик, где-то ножик.

		И мы с тобою станем вместе
		Как Сид и Нэнси, Сид и Нэнси.
		И ни за что не доживем до пенсии,
		Мы Сид и Нэнси, Сид и...

		Героиновый рай - и они там вдвоем,
		И мы, наверное, туда попадем
		По дорогам вен, по дорожкам пыли,
		Ведь мы так любили, мы были...

		Мы были с тобой все время вместе
		Как Сид и Нэнси, Сид и Нэнси.
		И ни за что бы не дожили до пенсии,
		Как Сид и Нэнси, Сид и...


Аккорды, используемые в подборе:
Схема аккорда D Схема аккорда D# Схема аккорда Em Схема аккорда C



Табулатуры

Количество правок табулатуры: 2
Редактировать табулатуру
Соло:

1||----------------------------------------------------------
2||----------------------------------------------------------
3||----------------------------------------------------------
4||------9--10-9---9-------9---10-9----9-----9---10-9---9----
5||--7-7--7------7-------------------------------------------
6||------------------10-10--10------10---8-8---8------8------

1||----------------------------------------------------------
2||----------------------------------------------------------
3||----------------------------------------------------------
4||-------9-10--------9-10-----------------------------------
5||----------------------------------------------------------
6||-10-10-------11-11----------------------------------------

Это я подобрал вступление, оно повторяется по всей песне в куплетах
для второй гитары (соло), подбирал для версии в Live in navigator club,
в новой версии немного по-другому.

4||-------9------10-9--------9-------9---------10-9---------9--10------9—10------------
5||----7----7-7-------7----------7------7-7----------7------------------------------7--
6||-----------------------10-----------------------------10---------11-----------------

Соло играется после обычного проигрыша табулатуры перед последним куплетом,
Играешь и поёшь последний куплет (Live in Navigator club версия)


Запросов к БД: 7
Генерация без шаблонов: 0.013956069946289