В начало / Каталог / Русский, N / Nirvana / Неизвестный альбом / All apologies /


Текст песни

Количество правок текста: 1 Редактировать текст
In Utero (1993), MTV Unplugged In New York (1994)
		All apologies

Voicings:	(Dropped-D tuning!)

		<G5> - [555xxx]!!
		<D5> - [000xxx]!!
		<A5> - [777xxx]!! or [x022xx]!!

Main Riff:	[E----------------------|----------------------|-
		B----------------------|----------------------|-
		G----------------------|----------------------|-
		D----------------------|----------12-12-9-10--|-
		A---9-10-9-12-12-9-10--|---9-10-9-------------|-
		D-0--------------------|-0--------------------|-

		E----------------------|----------------------|-
		B----------------------|----------------------|-
		G----------------------|----------11-11-9-----|-
		D----------------------|------------------12--|-
		A---9-10-9-12-12-9-10--|---9-10-9-------------|-
		D-0--------------------|-0--------------------|-]!!

Chorus:		< G5    D5 G5    D5 G5    D5 G5    D5 A5 D5 A5>
		[E---------------------------------------------|-
		B---------------------------------------------|-
		G---------------------------------------------|-
		D-5-5-5--0-5-5-5--0-5-5-5--0-5-5-5--0-7--0-7--|-
		A-5-5-5--0-5-5-5--0-5-5-5--0-5-5-5--0-7--0-7--|-
		D-5-5-5--0-5-5-5--0-5-5-5--0-5-5-5--0-7--0-7--|-]!!

		What else should I be
		All apologies
		What else should I say
		Everyone is gay
		What else could I write
		I don't have the right
		What else should I be
		All apologies

		In the sun
		In the sun I feel as one
		In the sun
		In the sun
		I'm married
		Buried

		I wish I was like you
		Easily amused
		Find my nest of salt
		Everything is my fault
		I'll take all the blame
		Aqur scafoam shame
		Sunburn with freezeburn
		Choking on the ashes of her enemy

!		Repeat Chorus

-

!		Drop D tuning down 1/2 step

Intro/Verse:	3|-------------------------------------------
		4|--------------------------------/12-12-10-9
		5|---9-10-9-/12-12-10-9------10-9------------
		6|-0----0-0---0----------0-0----0------------
!		play that 3x then play this:
		3|--------------------------------11-11-9----
		4|---------------------------------0--0-0--12
		5|---9-10-9-/12-12-10-9------10-9-----------0
		6|-0----0-0---0----------0-0----0------------

Chorus:		<G5> (3rd fret bar on low <D A> and <D> strings)
		        "Married" <A5>

Outro:		Play verse riff about a million times




У этой песни отсутствуют табулатуры. Вы можете добавить табулатуры сами


Запросов к БД: 6
Генерация без шаблонов: 0.0023908615112305