В начало / Каталог / Русский, P / Паганини Никколо / Неизвестный альбом / 26 композиций для гитары, №3 Андантино в D /


Текст песни

Количество правок текста: 1 Редактировать текст

		26 композиций для гитары, №3 Андантино в D

!		Обозначения:
!		Пальцы левой руки указаны под табом
!		 = Слайд вниз
!		/ = Слайд вверх
!		CII = Большое баррэ на 2-ом ладу
!		5p3 = Пулл с 5-ого лада на 3-ий

		||------||
!		[||*----*||]!! = Повторить (реприза)
		||*----*||
		||------||

!		Размер: 2/4
		[0   .        |     .     |     .        |     .     |     .
		E---2-----|--0-----0-----0-----3--2--|--------------------2-----|
		B---------|--------------------------|--3-----------------------|
		G---------|--0-----0-----0-----------|--------------2-----------|
		D---------|--------------------------|--0-----------------------|
		A---------|--0-----0-----0-----------|--------------------------|
		E---------|--------------------------|--------------------------|

		3     |     .     |     .        |     .     |     .
		E--|------0-----0-----2--3--|--7-----------5----2-----|
		B--|--------------------------|--6-----------7-----------|
		G--|--0-----0-----0-----------|--------------------------|
		D--|--------------------------|--0-----------------------|
		A--|--0-----0-----0-----------|--------------------------|
		E--|--------------------------|--------------------------|
		                                 4           1
		                                 2           3

		5     |     .     |     .        |     .     |     .
		E--|--0-----0-----0-----3--2--|--------------------------|
		B--|--------------------------|--3-----------------------|
		G--|--0-----0-----0-----------|--------------2-----2-----|
		D--|--------------------------|--0-----------------------|
		A--|--0-----0-----0-----------|--------------------------|
		E--|--------------------------|--------------------------|

		7     |     .     |     .        |     .     |         .
		E--|--------------------------|--------------------||--2-----|
		B--|--------3-----------5-----|--3-----------------||--------|
		G--|--4-----------6-----------|--------------------||*-------|
		D--|--5-----------5-----------|--4-----------------||*-------|
		A--|--------------0-----------|--5-----------------||--------|
		E--|--------------------------|--------------------||--------|

		     CII.................................................
		9     |     .     |     .        |     .     |     .
		E--|--2--3--2--3--2-----------|--------------------------|
		B--|-----------------5--3--2--|--------------------------|
		G--|--------------------------|--4-----------------4-----|
		D--|--------------------------|--------4-----4-----------|
		A--|--2-----2-----2-----2-----|--2-----------------------|
		E--|--------------------------|--------------------------|
		                     4  2   1
		                     1

		  CII....................................................
		11    |     .     |     .        |     .     |     .
		E--|--------------------------|--------------------2-----|
		B--|--2-----2-----3--2-----2--|--3-----------------------|
		G--|--------------------4-----|--------------4-----------|
		D--|--------------------------|--------------------------|
		A--|--------------------------|--2-----------------------|
		E--|--2-----2-----2-----------|--------------------------|

		  CII....................................................
		13    |     .     |     .        |     .     |     .
		E--|--2--3--2--3--2-----------|--------------------------|
		B--|-----------------5--3--2--|--------------------------|
		G--|--------------------------|--4-----------------4-----|
		D--|--------------------------|--------4-----4-----------|
		A--|--2-----2-----2-----2-----|--2-----------------------|
		E--|--------------------------|--------------------------|

		  CII........................................
		15    |     .     |     .        |     .     |         .
		E--|--------------------------|--------------------||--2-----|
		B--|--2-----2-----2-----3--2--|--------------------||--------|
		G--|--------------------------|--4-----------------||--------|
		D--|--------------------------|--------------------||--------|
		A--|--------------------------|--2-----------------||--------|
		E--|--2-----2-----2-----------|--------------------||--------|

		17    |     .     |     .        |     .     |     .
		E--|-/7----5-----5p3---2-----|--5-----3-----3p2---0-----|
		B--|--0-----------------------|--------------------------|
		G--|--------------------------|--------------------------|
		D--|--------------------------|--------------------------|
		A--|--------------------------|--------------------------|
		E--|--------------------------|--0-----------------------|

		19    |     .     |     .        |     .     |     .
		E--|--5-----3-----3p2---0-----|--3-----2-----2p0---------|
		B--|--------------------------|--------------------3-----|
		G--|--------------------------|--------------------------|
		D--|--------------------------|--0-----------------------|
		A--|--o-----------------------|--------------------------|
		E--|--------------------------|--------------------------|

		     CII.................................................
		21    |     .     |     .        |     .     |     .
		E--|--2--3--2--3--2-----------|--------------------------|
		B--|-----------------5--3--2--|--------------------------|
		G--|--------------------------|--4-----------------4-----|
		D--|--------------------------|--------4-----4-----------|
		A--|--2-----------2-----------|--2-----------------------|
		E--|--------------------------|--------------------------|

		  CII........................................
		23    |     .     |     .        |     .     |
		E--|--------------------------|--------------------||
		B--|--2-----2-----2-----3--2--|--------------------||
		G--|--------------------------|--4----------------*||
		D--|--------------------------|-------------------*||
		A--|--------------------------|--2-----------------||
		E--|--2-----2-----2-----------|--------------------||]!!




У этой песни отсутствуют табулатуры. Вы можете добавить табулатуры сами


Запросов к БД: 6
Генерация без шаблонов: 0.011701107025146