В начало / Каталог / Русский, P / ППК / Неизвестный альбом / Вoзpoждeниe /


Текст песни

Количество правок текста: 1 Редактировать текст

		Вoзpoждeниe

!		Caмaя, чтo нe нa ecть oбычнaя тaбyлaтypa

		[E||----------------------|----------------------|--------------------------|
		B||--0----------2--3--2--|--0----------2--3--2--|--0--2--3--2--0--2--3--2--|
		G||----------------------|----------------------|--------------------------|
		D||----------------------|----------------------|--------------------------|
		A||----------------------|----------------------|--------------------------|
		E||----------------------|----------------------|--------------------------|

		------------------------|-------------------|----------------------|
		--0--2--3--2--0---------|-------------------|--0----------2--3--2--|
		------------------------|--2----------------|----------------------|
		-------------------4----|-------------------|----------------------|
		------------------------|-------------------|----------------------|
		------------------------|-------------------|----------------------|

		----------------------|--------------------------|------------------------|
		--0----------2--3--2--|--0--2--3--2--0--2--3--2--|--0--2--3--2--0---------|
		----------------------|--------------------------|------------------------|
		----------------------|--------------------------|-------------------4----|
		----------------------|--------------------------|------------------------|
		----------------------|--------------------------|------------------------|

		-------------------|--------------0--------|-------------0--------|
		-------------------|---------3-------3--2--|--3-------------3--2--|
		--2----------------|--0--------------------|----------------------|
		-------------------|-----------------------|----------------------|
		-------------------|-----------------------|----------------------|
		-------------------|-----------------------|----------------------|

		-----0-----------0--------|-----0------------------|---------------------|
		--3-----3--2--3-----3--2--|--3-----3--2--3----2----|--3-2-0--------------|
		--------------------------|------------------------|---------------------|
		--------------------------|------------------------|---------------------|
		--------------------------|------------------------|---------------------|
		--------------------------|------------------------|---------------------|

		--------------0--------|-------------0--------|-----0-----------0--------|
		---------3-------3--2--|--3-------------3--2--|--3-----3--2--3-----3--2--|
		--0--------------------|----------------------|--------------------------|
		-----------------------|----------------------|--------------------------|
		-----------------------|----------------------|--------------------------|
		-----------------------|----------------------|--------------------------|

		-----0------------------|---------------------|-------------------||
		--3-----3--2--3----2----|--3-2-0--------------|-------------------||
		------------------------|---------------------|--2----------------||
		------------------------|---------------------|-------------------||
		------------------------|---------------------|-------------------||
		------------------------|---------------------|-------------------||]!!




У этой песни отсутствуют табулатуры. Вы можете добавить табулатуры сами


Запросов к БД: 6
Генерация без шаблонов: 0.014246940612793