В начало / Каталог / Русский, SH / Шуберт Франц / Неизвестный альбом / Форель - квинтет в А, Ор /


Текст песни

Количество правок текста: 2 Редактировать текст
		A------------------|------------------|--3-------3-------|
		E--3---------------|--3---------------|------------------|

		E------------------|------------------|------------------|
		B--1-----------1---|--0-----0-1-------|------------------|
		G----------0-------|------2-----------|--0-----------0---|
		D------2-----------|--0-----------4---|------0-----------|
		A--3---------------|------------------|------------------|
		E------------------|------------------|----------3-------|

		E------------------|------------------|------------1-----|
		B--0-----0-1-0---0-|--1-----------1---|--------------3---|
		G--------------2---|----------0-------|--0-----0-0-----0-|
		D--------0-3-------|------2-----------|----------0-------|
		A------------------|--3---------------|------------------|
		E--3---------------|------------------|--3---------------|

		E------------------|------------------|------------------|
		B--1-----------1---|--------------1---|--1---------------|
		G------0-----------|--2-----2-2-------|----------0---0---|
		D------2-----------|------------------|------2-----------|
		A--3-------3-------|------------------|--3---------------|
		E------------------|--1---------------|------------------|

		E------------------|------------------|------------------|
		B----------3---0---|--1-----------1---|--0---------1-0-3-|
		G--0-----0---------|----------0-------|------2-2-2-------|
		D------0-----------|------2-----------|------------------|
		A------------------|--3---------------|------------------|
		E--3---------------|------------------|--1---------------|

		E------------------|------------------|------------------|
		B--1---------------|----------3---0---|--1---------------|
		G----------0---0---|--0-----0---------|------0-----------|
		D------2-----------|------0-----------|------2-----------|
		A--3---------------|------------------|----------3-------|
		E------------------|--3---------------|------------------|]




Табулатуры

Количество правок табулатуры: 2
Редактировать табулатуру
A------------------|------------------|--3-------3-------|
		E--3---------------|--3---------------|------------------|

		E------------------|------------------|------------------|
		B--1-----------1---|--0-----0-1-------|------------------|
		G----------0-------|------2-----------|--0-----------0---|
		D------2-----------|--0-----------4---|------0-----------|
		A--3---------------|------------------|------------------|
		E------------------|------------------|----------3-------|

		E------------------|------------------|------------1-----|
		B--0-----0-1-0---0-|--1-----------1---|--------------3---|
		G--------------2---|----------0-------|--0-----0-0-----0-|
		D--------0-3-------|------2-----------|----------0-------|
		A------------------|--3---------------|------------------|
		E--3---------------|------------------|--3---------------|

		E------------------|------------------|------------------|
		B--1-----------1---|--------------1---|--1---------------|
		G------0-----------|--2-----2-2-------|----------0---0---|
		D------2-----------|------------------|------2-----------|
		A--3-------3-------|------------------|--3---------------|
		E------------------|--1---------------|------------------|

		E------------------|------------------|------------------|
		B----------3---0---|--1-----------1---|--0---------1-0-3-|
		G--0-----0---------|----------0-------|------2-2-2-------|
		D------0-----------|------2-----------|------------------|
		A------------------|--3---------------|------------------|
		E--3---------------|------------------|--1---------------|

		E------------------|------------------|------------------|
		B--1---------------|----------3---0---|--1---------------|
		G----------0---0---|--0-----0---------|------0-----------|
		D------2-----------|------0-----------|------2-----------|
		A--3---------------|------------------|----------3-------|
		E------------------|--3---------------|------------------|]


Запросов к БД: 7
Генерация без шаблонов: 0.0029191970825195