В начало / Каталог / Русский, S / Slipknot / Неизвестный альбом / Wait And Bleed /


Текст песни

Количество правок текста: 1 Редактировать текст
Slipknot (1999)
		Wait And Bleed

!		Drop B
		B F# B E G# C#

!		Риф а гит 1

		[C#------------------------------------------------------------
		G#------------------------------------------------------------
		 E------------------------------------------------------------
		 B---0-----7-----1-----8-----7-------------8------------------
		F#-------------------------5-------7-----6---------8----8-----
		 B-0-----7-----1-----8-----------7---------------8----8-------]!!

!		Риф а гит 2

		[------------------------------------------------------------
		------------------------------------------------------------
		-14--14-14-14--14----14-14-14-14-14-15-15--15-14-14-14-14-15
		------------------------------------------------------------
		-12--12-12-12--12----12-12-12-12-12-13-13--13-12-12-12-12-13
		------------------------------------------------------------]!!

!		потом

		[------------------------------------------------------------
		------------------------------------------------------------
		------------------------------------------------------------
		------------------------------------------------------------
		---------------------5-----------------------5--------------
		-0-0--0----0-0-0-0/6-----0-0--0----0-0-0-0/6----------------]!!

!		дальше                                        ...Goodbye!....
		[------------------------------------------------------------
		------------------------------------------------------------
		------------------------------------------------------------
		------------------------------------------------------------
		---------------------5--------------------------------------
		-0-0--0----0-0-0-0/6----0-0--0----0-0-0---------------------]!!

		  ...i wipe it off the tile....

		[------------------------------------------------------------
		------------------------------------------------------------
		------------------------------------------------------------
		------------------------------------------------------------
		-----------------1-4-1------------------1-4-1---------------
		-0-0--0----0-0-0-1-4-1--0-0--0----0-0-0-1-4-1---------------]!!
		                 . . .                  . . .

!		Припев до интерлюдии

!		гит 1.

		[------------------------------------------------------------
		------------------------------------------------------------
		-7-7-7-7---7-7-7---8-8-7---8-8-7-7-7-7-7---7-7-7-8-8-8-8-8--
		-x-x-x-x---x-x-x---x-x-x---x-x-x-x-x-x-x---x-x-x-x-x-x-x-x--
		-5-5-5-5---5-5-5---6-6-5---6-6-5-5-5-5-5---5-5-5-6-6-6-6-6--
		------------------------------------------------------------]!!

!		гит 2.

		[------------------------------------------------------------
		------------------------------------------------------------
		------------------------------------------------------------
		---0-----7-----1-----8-----7-----------8-8---8-8------------
		-------------------------5-------7--6--6-6---6-6-------5h6--
		-0-----7-----1-----8-----------7----------------------------]!!

!		Интерлюдия

		[e------------------------------------------------------------
		b------------------------------------------------------------
		g------------------------------------------------------------
		d---7-----------------7-----------------7--------------------
		a-8-------5br---5h6h8-------5br---5h6h8-------5br------------
		d-----0-0-----0---------0-0-----0---------0-0-----0--0h1-----]!!
		      . .     .         . .     .         . .     .

!		Беспредел

		[e------------------------------------------------------------
		b------------------------------------------------------------
		g------------------------------------------------------------
		d------------------------------------------------------------
		a---0-----0-----------0-----0--------------------------------
		d-3---0-0-0--0--0h1h3---0-0-0--0--0h1h-----------------------]!!
		      . .    .          . .    .

!		Припев

		[-----------------------------------------------------------------
		-----------------------------------------------------------------
		-----------------------------------------------------------------
		-0-0-0-7-7-7-7-1-1-1-1-1-1-1-1-1-0-0-0-7-7-7-7-1-1-1-1-1-1-1-1---
		-0-0-0-7-7-7-7-1-1-1-1-1-1-1-1-1-0-0-0-7-7-7-7-1-1-1-1-1-1-1-1---
		-0-0-0-7-7-7-7-1-1-1-1-1-1-1-1-1-0-0-0-7-7-7-7-1-1-1-1-1-1-1-1---]!!

!		Концовка

		[-----------------------------------------------------------------
		-----------------------------------------------------------------
		-----------------------------------------------------------------
		-----------------------------------------------------------------
		-0-0--0---0-0-0-1-4-1--0-0--0---0-0-0-1-4-1--0-0--0---0-0-0-1-4-1
		-0-0--0---0-0-0-1-4-1--0-0--0---0-0-0-1-4-1--0-0--0---0-0-0-1-4-1]!!

-

Text:		I've felt the hate rise up in me...
		Kneel down and clear the stone of leaves...
		I wander out where you can't see...
		Inside my shell, I wait and bleed...

		Goodbye!

		I wipe it off on tile, the light is brighter this time
		Everything is 3D blasphemy
		My eyes are red and gold, the hair is standing straight up
		This is not the way I pictured me
		I CAN'T CONTROL MY SHAKES!
		How the hell did I get here?
		Something about this, so very wrong...
		I have to laugh out loud, I wish I didn't like this
		Is it a dream or a memory?

		GET OUTTA MY HEAD CUZ I DON'T NEED THIS!
		Why I didn't I see this?
		I'm a victim - Manchurian Candidate
		I - HAVE - SINNED - BY - JUST
		Makin' my mind up and takin' your breath away

		GOODBYE!

		You haven't learned a thing
		I haven't changed a thing
		My flesh was in my bones
		The pain was always free

		I've felt the hate rise up in me...
		Kneel down and clear the stone of leaves...
		I wander out where you can't see...
		Inside my shell, I wait and bleed...

		AND IT WAITS FOR YOU!


Аккорды, используемые в подборе:
Схема аккорда B Схема аккорда F# Схема аккорда E Схема аккорда G#
Схема аккорда C#


У этой песни отсутствуют табулатуры. Вы можете добавить табулатуры сами


Запросов к БД: 6
Генерация без шаблонов: 0.02021598815918